Die Toten Hosen - Ich Bin Die Sehnsucht In Dir Chords & Tabs

 

Ich Bin Die Sehnsucht In Dir Chords & Tabs

Die Toten Hosen Chords & Tabs

Version: 2 Type: Tab 0 ratings
1 star 2 stars 3 stars 4 stars 5 stars
comments

Ich Bin Die Sehnsucht In Dir Tab

   
Toten Hosen - Ich bin die Sehnsucht in dir

Tune 1 Step Down!!!!!!!!!

Gtr I (D G C F A D) - 


IntrO:
 
|----------------------------------------|
|-------0--------------------------------|
|--------------2--------2----------------|
|-----2------2---2----2---2-------6------|
|---2------3--------0-----------7---7----|
|-0--------------------------/5----------|


  E E E E  E E E E  E E E  E E E E E
|----------------------------------0----|
|-------0------------------------4-0----|
|--------------2--------2------4--------|
|-----2------2---2----2------5----------|
|---2------3--------0------6------------|
|-0-------------------------------------|


Bridge:

  E E E E E E E E E E E E
|----------------------------|
|-----8-----7-----7-----5----|
|----------------------------|
|---9-----7-----7-----5------|   2x
|-7-----6-----5-----4--------|
|----------------------------|


  E E E   E  E   E  E  E  E
|------------------------------|
|------------------------------|
|-----9--12-12--10-10-10--7----|
|---9----12-12--10-10-10--7----|
|-7------10-10---8--8--8--5----|
|------------------------------|

Refrain:

  E E E E E E E
|-3-----5-----5----|
|-3-3-5-6-6-5-5----|
|-4-----7-----5----|
|-5-----7-----7----|
|-5-----5-----7----|
|-3-----5-----5----|



This are the Main Parts of the Song for Rhythm Guitar.If you want to know how often
each parts are played, just hear the Song  :-)
[ Tab from: http://www.guitartabs.cc/tabs/d/die_toten_hosen/ich_bin_die_sehnsucht_in_dir_tab_ver_2.html ]
Greetings to Markus "Hoeven" , Jan "Melonentee" , Frank "van Jupp van Bort" Christoph "TiF Tof"  

Killjoy Rules! 

Greetings, Quinz


Duration Legend
---------------
W - whole; H - half; Q - quarter; E - 8th; S - 16th; T - 32nd; X - 64th; a - acciaccatura
+ - note tied to previous; . - note dotted; .. - note double dotted
Uncapitalized letters represent notes that are staccato (1/2 duration)
Irregular groupings are notated above the duration line
Duration letters will always appear directly above the note/fret number it represents the
duration for.  Duration letters with no fret number below them represent rests.  Multi-
bar rests are notated in the form Wxn, where n is the number of bars to rest for.  Low
melody durations appear below the staff

Tablature Legend
----------------
 h   - hammer-on
 p   - pull-off
 b   - bend
 pb  - pre-bend
 r   - bend release (if no number after the r, then release immediately)
 /\  - slide into or out of (from/to "nowhere")
 s   - legato slide
 S   - shift slide
  - natural harmonic
[n]  - artificial harmonic
n(n) - tapped harmonic
 ~   - vibrato
 tr  - trill
 T   - tap
 TP  - trem. picking
 PM  - palm muting
\n/  - tremolo bar dip; n = amount to dip
 \n  - tremolo bar down
 n/  - tremolo bar up
/n\  - tremolo bar inverted dip
 =   - hold bend; also acts as connecting device for hammers/pulls
 <>  - volume swell (louder/softer)
 x   - on rhythm slash represents muted slash
 o   - on rhythm slash represents single note slash

Misc Legend
-----------
 |  - bar
||  - double bar
||o - repeat start
o|| - repeat end
*|  - double bar (ending)
 :  - bar (freetime)
 $  - Segno
 &  - Coda
Tempo markers -  = BPM(8/16=s8/s16), where s8 = swing 8ths, s16 = swing 16ths


***************************************************************************************
* Generated using Power Tab Editor by Brad Larsen - http://powertab.guitarnetwork.org *
***********************************************************
Comments