Die Sterne - Dingeling Chords & Tabs

 

Dingeling Chords & Tabs

Die Sterne Chords & Tabs

Version: 1 Type: Bass Tab 0 ratings
1 star 2 stars 3 stars 4 stars 5 stars
comments

Dingeling Bass Tab

Band:  Die Sterne                         tab: paulb@freenet.de
Album: Wo ist hier
Song:  DINGELING
 
G|-----7-----------|-----7-----------|  5x  (bis 0:28)
D|-----------------|-----------------|
A|-5---------------|-5---------------|
E|-----------------|-----------5-5---|
   1 + 2 + 3 + 4 +   1 + 2 + 3 + 4 +
 
G|-----7-----------|-----7-----------|
D|-----------------|-----------------|
A|-5---------------|-5-------------5-|
E|-----------------|----------55-8---|
   1 + 2 + 3 + 4 +   1 + 2 + 3 + 4 +
 
G|-----7-----------|-----7-----------|  3x  (bis 0:50)
D|-----------------|-----------------|
A|-5---------------|-5---------------|
E|-----------------|-----------5-5---|
   1 + 2 + 3 + 4 +   1 + 2 + 3 + 4 +
 
G|-----7-----------|-----7-----------|-----7-----------|
D|-----------------|-----------------|-----------------|
A|-5---------------|-5---------------|-5---------------|
E|-----------------|-----------------|-----------5-5---|
   1 + 2 + 3 + 4 +   1 + 2 + 3 + 4 +   1 + 2 + 3 + 4 +
 
G|-----7-----------|-----7-----------|---7-----------7-|
D|-----------------|-----------------|-----5h7---------|
A|-5---------------|-5---------------|-5-----------5---|
E|-----------------|-----------5-5---|---------5-------|
   1 + 2 + 3 + 4 +   1 + 2 + 3 + 4 +   1 + 2 + 3 + 4 +
 
G|---7-----------7-|---7-----------7-|---7-----------7-|---7-------------| 3x  (bis 1:41)
D|-----5h7---------|-----5h7---------|-----5h7---------|-----5h7---------|
A|-5-----------5---|-5-----------5---|-5-----------5---|-5-------------5-|
E|--------5--------|--------5--------|--------5--------|--------5-58-8---|
   1 + 2 + 3 + 4 +   1 + 2 + 3 + 4 +   1 + 2 + 3 + 4 +   1 + 2 + 3 + 4 +
 
G|---7---9---10--12|
D|-----------------|
A|-5---7---8---10--|
E|-----------------|
   1 + 2 + 3 + 4 +
 

G|---7-----------7-|---7-----------7-|---7-----------7-|---7-------------|
D|-----5h7---------|-----5h7---------|-----5h7---------|-----5h7---------|
A|-5-----------5---|-5-----------5---|-5-----------5---|-5-------------5-|
E|--------5--------|--------5--------|--------5--------|--------5-58-8---|
   1 + 2 + 3 + 4 +   1 + 2 + 3 + 4 +   1 + 2 + 3 + 4 +   1 + 2 + 3 + 4 +
 
[ Tab from: http://www.guitartabs.cc/tabs/d/die_sterne/dingeling_btab.html ]
G|---7-----------7-|---7-----------7-|---7-----------7-|---7-------7---9---10--12|
D|-----5h7---------|-----5h7---------|-----5h7---------|-----5h7-----------------|
A|-5-----------5---|-5-----------5---|-5-----------5---|-5-------5---7---8---10--|
E|--------5--------|--------5--------|--------5--------|--------5----------------|
   1 + 2 + 3 + 4 +   1 + 2 + 3 + 4 +   1 + 2 + 3 + 4 +   1 + 2 + 3   +   4   +
 

G|---7-----------7-|---7-------------|---7-----------7-|---7-------------|
D|-----5h7---------|-----5h7---------|-----5h7---------|-----5h7---------|
A|-5-----------5---|-5-------------5-|-5-----------5---|-5-------------5-|
E|--------5--------|--------5-58-8---|--------5--------|--------5-58-8---|
   1 + 2 + 3 + 4 +   1 + 2 + 3 + 4 +   1 + 2 + 3 + 4 +   1 + 2 + 3 + 4 +
 

G|---7-----------7-|---7-------7---9---10--12|
D|-----5h7---------|-----5h7-----------------|
A|-5-----------5---|-5-------5---7---8---10--|
E|--------5--------|--------5----------------|
   1 + 2 + 3 + 4 +   1 + 2 + 3   +   4   +
 
5 Takte warten  (bis 2:38)
 
G|---7-----------7-|---7-------------|---7-----------7-|---7-------------|
D|-----5h7---------|-----5h7---------|-----5h7---------|-----5h7---------|
A|-5-----------5---|-5-------------5-|-5-----------5---|-5-------------5-|
E|--------5--------|--------5-58-8---|--------5--------|--------5-58-8---|
   1 + 2 + 3 + 4 +   1 + 2 + 3 + 4 +   1 + 2 + 3 + 4 +   1 + 2 + 3 + 4 +
 
G|---7-----------7-|---7-------------|---7-----------7-|---7-------7---9---10--12|
D|-----5h7---------|-----5h7---------|-----5h7---------|-----5h7-----------------|
A|-5-----------5---|-5-------------5-|-5-----------5---|-5-------5---7---8---10--|
E|--------5--------|--------5-58-8---|--------5--------|--------5----------------|
   1 + 2 + 3 + 4 +   1 + 2 + 3 + 4 +   1 + 2 + 3 + 4 +   1 + 2 + 3   +   4   +
 
G|---7-----------7-|-----7-----------|-----7-----------|---7---9---10--12|
D|-----5h7---------|-----------------|-----------------|-----------------|
A|-5-----------5---|-5-------------5-|-5---------------|-5---7---8---10--|
E|--------5--------|----------58-8---|-----------------|-----------------|
   1 + 2 + 3 + 4 +   1 + 2 + 3 + 4 +   1 + 2 + 3 + 4 +   1 + 2 + 3 + 4 +
 
G|-----7-----------|-----7-----------|-----7-----------|---7---9---10--12|-----|
D|-----------------|-----------------|-----------------|-----------------|-----|
A|-5---------------|-5-------------5-|-5---------------|-5---7---8---10--|-5---|
E|-----------------|----------58-8---|-----------------|-----------------|-----|
   1 + 2 + 3 + 4 +   1 + 2 + 3 + 4 +   1 + 2 + 3 + 4 +   1 + 2 + 3 + 4 +   1234
 

tab by paulb@freenet.de

Comments