Die Kassierer - Ich Muss Kacken Chords & Tabs

 

Ich Muss Kacken Chords & Tabs

Die Kassierer Chords & Tabs

Version: 1 Type: Tab 0 ratings
1 star 2 stars 3 stars 4 stars 5 stars
comments

Ich Muss Kacken Tab

   
Titel: Die Kassierer - Ich muss kacken

by: sk4t3r@web.de
just the chords...you find out that easy 3 chord song!


C[pm]
Ich muss kacken,
             F[pm]
und sitz am Scheisshaus,
          C[pm]           G[pm]
ne Happy Weekend in der Hand.
       C[pm]          F[pm]
Seite 212 die Fotze da
C[pm]                        C
habe ich doch gleich erkannt.
          C               F
Letztes Jahr auf einem Rastplatz,
 C             G
habe ich sie geknallt
    C          F
ihre M?se war ungewaschen und stank
            C          G     F
und sie war 75 Jahre alt.

Refrain:
         C                  F
Ich rief sie an, die Fotze, rief sie an die Oma,
          C                     G
rief sie an, die M?se und ich fuhr zu ihr.
              C                F
Ich rief sie an, die Fotze, rief sie an die Oma,
   C               G           F
Ich rief sie an und ich fuhr zu ihr.


C                       F
Da war ich dann bei ihr zu Hause,
C                     G
?ffnete sie mir die T?r.
C                        F
Sie stand da in schwarzen Strapsen und
             C          G      F
fasst ihr ...
C                      F
Sie machte sich an die Arbeit und
C                    G
sie klemmte mir die Eier ab.
C                     F
Danach holte sie zwei Gewichte und
C           G      F
h?ngte sie mir an den Sack.

Refrain:
[ Tab from: http://www.guitartabs.cc/tabs/d/die_kassierer/ich_muss_kacken_tab.html ]
           C
Zieh sie lang, die Kl?tze.
          F
Zieh sie lang, die Eier.
          C
Zieh sie lang, die Kl?ten,
G
Zieh sie bis zum Knie!
          C
Zieh sie lang, die Kl?tze.
           F
Zieh sie lang, die Eier.
  C          G         F
Zieh sie mir bis zum Knie!


*Solo*
a)
e|-------------------------------------------------------|
B|---------------------------------------------8---------|
G|--9-9-10-9-7-5-7-9-9-10-7--7-9-9-10-9-7-5-7----10-9-7-5|
D|-------------------------------------------------------|
A|-------------------------------------------------------|
E|-------------------------------------------------------|
b)
e|-----------------------------------------------------------|
B|---------------------------------------------8-------------|
G|--9-9-10-9-7-5-7-9-9-10-7--7-9-9-10-9-7-5-7----10-9-7-5--5-|
D|-----------------------------------------------------------|
A|-----------------------------------------------------------|
E|-----------------------------------------------------------|


C                           F
Jetzt wollte sie das ich sie Ficke.
C                          G
Und zwar mit meinem ganzen Arm.
    C                      F
Er war schon bis zum Anschlag drin und
   C                  G            F
ich steckte noch mein Bein in ihren Darm.


Refrain:
               C                <- at "C"  guit.2 starts playing *solo* a)
Ich Fick dich durch, du Fotze
           F
Fick dich durch, du Oma
            C                     G
Fick dich durch, du M?se, bis der Notarzt kommt
          C
Ich Fick dich durch, du Fotze
              F
Fick dich durch, du Oma
    C           G              F
Ich fick dich bis der Notarzt kommt.

*Solo* b)


that?s it. Have fun playing that easy song!!!!
Comments