Die Aerzte - Schrei Nach Liebe Chords & Tabs

 

Schrei Nach Liebe Chords & Tabs

Die Aerzte Chords & Tabs

Version: 2 Type: Chords

Schrei Nach Liebe Chords

   
Schrei Nach Liebe Chords by Die Aerzte, www.Ultimate-Guitar.Com


Song: Schrei nach Liebe
Artist: Die Aerzte

intro

   D5 D5 D5 D5 D5
e --------------------------|
B --------------------------|
G --------------------------| and so on
D --------------------------|
A -12-12-12-12-12--|
E -10-10-10-10-10--|


main part
  D5                                 Bb5           C5
e ------------------------------------------------------------|
B ------------------------------------------------------------|
G -----------9-10-9---------------------------9-10-12-10-9----|  x2
D -12--12-12--------10-12--10-12-10-12--12-12--------------10-|
A ------------------------------------------------------------|
E ------------------------------------------------------------|

  D5    C5    D5
e ---------------|
B ---------------|
G 7-----5-5-5-7--|
D 7-----5-5-5-7--|
A 5-----3-3-3-5--|
E ---------------|

1. Verse
 D5                        Bb5       C5
Du bist wirklich saudumm, darum geht's dir gut.
 D5                       Bb5       C5
Hass ist deine Attit?de, st?ndig kocht dein Blut.
 D5                           Bb5               C5
Alles muss man dir erkl?ren, weil du wirklich gar nichts wei?t.
 D5                               Bb5        C5
H?chstwahrscheinlich nicht einmal, was Attit?de hei?t.


Refrain:
 Bb       C                 Dm                        C
Deine Gewalt ist nur ein stummer Schrei nach Liebe.
 Bb       C                 G                        A
Deine Springerstiefel sehnen sich nach Z?rtlichkeit.
 Bb       C                 Dm               C
Du hast nie gelernt dich zu artikulieren
 Bb                       A
Und deine Eltern hatten niemals f?r dich Zeit
Bb
Ohohoh - ARSCHLOCH


e ------------------------------------------------------------|
B ------------------------------------------------------------|
G -----------9-10-9---------------------------9-10-12-10-9----|  x2
D -12--12-12--------10-12--10-12-10-12--12-12--------------10-|
A ------------------------------------------------------------|
E ------------------------------------------------------------|
[ Tab from: http://www.guitartabs.cc/tabs/d/die_aerzte/schrei_nach_liebe_crd_ver_2.html ]
2.Verse
 D5                           Bb5               C5
Warum hast du Angst vorm streicheln? Was soll all der Terz?
 D5                           Bb5               C5
Unterm Lorbeerkranz mit Eicheln weiss ich schl?gt dein Herz!
 D5                           Bb5               C5
Und Romantik ist f?r dich nicht bloss graue Theorie.
 D5                           Bb5               C5
Zwischen St?rkraft und den Onkelz steht ne Kuschelrock LP.

Refrain:
 Bb       C                 Dm                        C
Deine Gewalt ist nur ein stummer Schrei nach Liebe.
 Bb       C                 G                        A
Deine Springerstiefel sehnen sich nach Z?rtlichkeit.
 Bb       C                 Dm               C
Du hast nie gelernt dich zu artikulieren
 Bb                       A
Und deine Eltern hatten niemals f?r dich Zeit
Bb
Ohohoh - ARSCHLOCH

solo

e ----------------14-13----------------------------------------|
B --15--13-15-13---------15-13---------------------------------|
G -----------------------------15--12-15-12--12/(13)12-10-12---|
D -------------------------------------------------------------|
A -------------------------------------------------------------|
E -------------------------------------------------------------|

e -----------------------------------------------20----|
B 10-13-10-------15-17-18-17-18-20-18-20-22-20-22------|
G ---------12-17---------------------------------------|
D -----------------------------------------------------|
A -----------------------------------------------------|
E -----------------------------------------------------|

3. Verse
 Bb       C                 Dm                 C
Weil du Probleme hast die keinen intressieren,
 Bb       C                 G                        A
Weil du Schi? vorm Streicheln hast, bist du ein Faschist!
 Bb              C                  Dm                  C
Du musst deinen Selbsthass nicht auf andre projezieren,
 Bb                       A                        B
Damit keiner merkt was f?r ein lieber Kerl du bist.

Refrain:
 Bb       C                 Dm                        C
Deine Gewalt ist nur ein stummer Schrei nach Liebe.
 Bb       C                 G                        A
Deine Springerstiefel sehnen sich nach Z?rtlichkeit.
 Bb       C                 Dm               C
Du hast nie gelernt dich zu artikulieren
 Bb                       A
Und deine Eltern hatten niemals f?r dich Zeit
         Bb         C           Dm        Dm
Ohohoh - ARSCHLOCH -Arschloch - Arschloch

Ende:
e:---------------------------------|
B:---------------------------------|
G:-5h7p5h7p5h7p5h7p5h7p5h7---------|
D:---------------------------------|
A:---------------------------------|
E:---------------------------------|


R.B.