Die Aerzte - Schlaflied Chords & Tabs

 

Schlaflied Chords & Tabs

Die Aerzte Chords & Tabs

Version: 1 Type: Tab 0 ratings
1 star 2 stars 3 stars 4 stars 5 stars
comments

Schlaflied Tab

   
#----------------------------------PLEASE NOTE--------------------------------#
#This file is the author's own work and represents their interpretation of the#
#song. You may only use this file for private study, scholarship, or research.#
#-----------------------------------------------------------------------------#

Date: Fri, 30 Jan 1998 11:16:45 +0100
From: "BARCENA  EGURROLA, ESTEBAN " 
Subject: TAB: 'Schlaflied' by 'Die Aerzte'


      "SCHLAFLIED"

by "Die Aerzte" from album "Devil"


Play this!

capo on the 5th fret
            G            D            Em          D            Em
e--------|--------3------------2------------0------------2------------0------|
B--------|------0---0--------3---3--------0---0--------3---3--------0---0----|
G--------|----0-------0----2-------2----0-------0----2-------2----0-------0--|
D--0-2-4-|---------------0------------------------0--------------------------|
A--------|-------------------------------------------------------------------|
E--------|--3-------------------------0-------------------------0------------|
[ Tab from: http://www.guitartabs.cc/tabs/d/die_aerzte/schlaflied_tab.html ]
   D
e--------2------------2------------2-------|
B------3---3--------3---3--------3---3-----|
G----2-------2----2-------2----2-------2---|
D--0---------------------------------------|
A---------------0------------0-------------|
E------------------------------------------|

Schlaf, mein Kindchen, schlafe ein,
Die Nacht, die schaut zum Fenster rein.
Der runde Mond, der hat dich gerne,
und es leuchten Dir die Sterne.
Schlaf, mein Kindchen, traeume suess,
bald bist Du im Paradies!

Denn gleich oeffnet sich die Tuer,
und ein Monster kommt zu Dir!
Mit seinen elf Augen schaut es Dich an,
und schleicht sich an dein Bettchen ran!
Du liegst still da, bewegst Dich nicht,
das Monster zerkratzt Dir dein Gesicht!

Seine Finger sind lang und duenn,
wehr dich nicht, 's hat keinen Sinn!
Und es kichert wie verrueckt,
als es deinen Hals zudrueckt! - Du schreist,
doch Du bist allein zu Haus',
Das Monster sticht Dir die Augen aus!

Dann bist Du still und das ist gut!
Es bleibt Dir in den Hals und trinkt dein Blut!
Ohne Blut bist Du bleich wie Kreide,
dann frisst es deine Eingeweide!
Dein kleines Bettchen, vom Blut ganz rot,
die Sonne geht auf und Du bist tot!

Schlaf, mein Kindchen, schlaf jetzt ein,
am Himmel stehn die Sternelein!
Schlaf, mein Kindchen, schlafe schnell,
dein Bettchen ist ein Karussell!
Schlaf, mein Kindchen, schlaf jetzt ein,
sonst kann das Monster nicht hinein!

Se agradecen los comentarios y correcciones.
Any comment and correction are wellcome.

Esteban Barcena, San Sebastian
e-mail: A55407@gaviota.ceit.es
Comments