Die Aerzte - Nie Gesagt Chords & Tabs

 

Nie Gesagt Chords & Tabs

Die Aerzte Chords & Tabs

Version: 1 Type: Tab 0 ratings
1 star 2 stars 3 stars 4 stars 5 stars
comments

Nie Gesagt Tab

   
#----------------------------------PLEASE NOTE---------------------------------#
#This file is the author's own work and represents their interpretation of the #
#song. You may only use this file for private study, scholarship, or research. #
#------------------------------------------------------------------------------#

NIEGESAGT
DIE ?RZTE


TABBED BY MARIAN PARTZSCH

ANY QUESTIONS TO LEPAULSTANDARD@WEB.DE

Am                    G         F

Ich wache auf und das Bett ist leer

Am                         G         F

Das st?rt mich eigentlich gar nicht mehr

Am                      G          F

Auch sonst ist alles in Ordnung soweit

Am                     G     F

Da w?r nur noch eine Kleinigkeit

Dm

Du hast gesagt ich schaff es nie ohne dich

           Am                        G

Ich hab geh?rt, dass du das allen erz?hlst

Dm

Das find ich absolut l?cherlich

C                            G

Ich hab doch nie gesagt dass du mir fehlst

Am                           G

Ich hab doch nie gesagt dass du mir fehlst

Am                           G       F

Ich hab doch nie gesagt dass du mir fehlst

Du fehlst mir!

Am      G  F

Ich hab gesagt du intressierst mich nicht mehr

Jetzt merke ich, es ist ziemlich schwer

Ich hab gesagt, du bist mir egal

Jetzt seh ich dein Gesicht ?berall

Ich hab gesagt, wie sehr ich mich freue,

dass du dich sicherlich heimlich qu?lst

Ich hab soviel gesagt, was ich jetzt bereue, aber

Ich hab dir nie gesagt dass du mir fehlst

Ich hab dir nie gesagt dass du mir fehlst

Ich hab dir nie gesagt dass du mir fehlst

Du fehlst mir!

Solo

Ich wache auf und du bist nicht hier

Doch in Gedanken bin ich immer bei dir

Ich war zu stolz um zuzugeben

Ohne dich kann ich nicht leben

Das geht nur uns beide was an

Ich m?chte dass du es f?r dich beh?ltst

Damit ich weiterhin behaupten kann

Ich hab dir nie gesagt dass du mir fehlst...

VIOLINE SCORE:

  E S S S S E +Q.   E   E S S S S S S S S S S S E S   E E +Q   +E  E Q
|---------------------|---5-3-1-3-1-3-5-3-1-3-1-3---|-1-0-(0)--(0)-------|
|---5-6-8-6-5-(5)-----|-----------------------------|--------------------|
|---------------------|-----------------------------|--------------------|
|---------------------|-----------------------------|--------------------|
|---------------------|-----------------------------|--------------------|
|---------------------|-----------------------------|--------------------|


  E S S S S E E S S S S E   E E +Q   +E  E Q    E S S S S S S S S S S S E S
|---5-3-1-3-----3-1-0-1---|-1-0-(0)--(0)------|---5-3-1-3-1-3-5-3-1-3-1-3----|
|-------------------------|-------------------|------------------------------|
|-------------------------|-------------------|------------------------------|
|-------------------------|-------------------|------------------------------|
|-------------------------|-------------------|------------------------------|
|-------------------------|-------------------|------------------------------|

[ Tab from: http://www.guitartabs.cc/tabs/d/die_aerzte/nie_gesagt_tab.html ]
  E E +Q   +E  E Q    E S S S S E E S S S S E   W          W
|-1-0-(0)--(0)------|---5-3-1-3-----3-1-0-1---|----------|------|
|-------------------|-------------------------|----------|------|
|-------------------|-------------------------|----------|------|
|-------------------|-------------------------|----------|------|
|-------------------|-------------------------|----------|------|
|-------------------|-------------------------|----------|------|


 SOLO:
   H.      S  S  S  S    H.      S  S  S  S    E  S  S  +Q    +Q   E  E
|-10------------------|-10------------------|----------------------------|
|------------13-10-13-|------------13-10-13-|-10-13-10-(10)--(10)----12--|
|---------------------|---------------------|----------------------------|
|---------------------|---------------------|----------------------------|
|---------------------|---------------------|----------------------------|
|---------------------|---------------------|----------------------------|


   H    E  S S  S S E    Q   E  E  +Q.    E    Q   E  E  +Q.    E
|---------10---12-----|-13--12-10-(10)------|-13--12-10-(10)------|
|-10------------------|------------------10-|------------------10-|
|---------------------|---------------------|---------------------|
|---------------------|---------------------|---------------------|
|---------------------|---------------------|---------------------|
|---------------------|---------------------|---------------------|


   S  S  S  S  H    S  S  S  S
|------------------------------|
|----12-13-15------------12----|
|-14----------14------14----14-|
|------------------------------|
|------------------------------|
|------------------------------|


   Q.    E  +Q.    E    Q.    E  +Q    E E    W
|-12----10-(10)------|-12----10-(10)--16---|-17----|
|-----------------10-|---------------------|-------|
|--------------------|---------------------|-------|
|--------------------|---------------------|-------|
|--------------------|---------------------|-------|
|--------------------|---------------------|-------|

--------------------------------------------------------------------------------


Duration Legend
---------------
W - whole; H - half; Q - quarter; E - 8th; S - 16th; T - 32nd; X - 64th; a - acciaccatura
+ - note tied to previous; . - note dotted; .. - note double dotted
Uncapitalized letters represent notes that are staccato (1/2 duration)
Irregular groupings are notated above the duration line
Duration letters will always appear directly above the note/fret number it represents the
duration for.  Duration letters with no fret number below them represent rests.  Multi-
bar rests are notated in the form Wxn, where n is the number of bars to rest for.  Low
melody durations appear below the staff

Tablature Legend
----------------
 h   - hammer-on
 p   - pull-off
 b   - bend
 pb  - pre-bend
 r   - bend release (if no number after the r, then release immediately)
 /\  - slide into or out of (from/to "nowhere")
 s   - legato slide
 S   - shift slide
 - natural harmonic
[n]  - artificial harmonic
n(n) - tapped harmonic
 ~   - vibrato
 tr  - trill
 T   - tap
 TP  - trem. picking
 PM  - palm muting
\n/  - tremolo bar dip; n = amount to dip
 \n  - tremolo bar down
 n/  - tremolo bar up
/n\  - tremolo bar inverted dip
 =   - hold bend; also acts as connecting device for hammers/pulls
 <> - volume swell (louder/softer)
 x   - on rhythm slash represents muted slash
 o   - on rhythm slash represents single note slash

Misc Legend
-----------
 |  - bar
||  - double bar
||o - repeat start
o|| - repeat end
*|  - double bar (ending)
 :  - bar (freetime)
 $  - Segno
 &  - Coda
Tempo markers -  = BPM(8/16=s8/s16), where s8 = swing 8ths, s16 = swing 16ths
Comments