Die Aerzte - Buddy Hollys Brille Chords & Tabs

 

Buddy Hollys Brille Chords & Tabs

Die Aerzte Chords & Tabs

Version: 1 Type: Chords 0 ratings
1 star 2 stars 3 stars 4 stars 5 stars
comments

Buddy Hollys Brille Chords

   
Buddy Holly's Brille
====================
(M/T: Urlaub)


Akkorde:
   A   D   E   f#  A7  A6
1:-0-|-2-|-0-|-2-|-3-|-2-|
2:-2-|-3-|-0-|-2-|-2-|-2-|
3:-2-|-2-|-1-|-2-|-2-|-2-|
4:-2-|-0-|-2-|-4-|-2-|-2-|
5:-0-|---|-2-|-4-|-0-|-0-|
6:---|---|-0-|-2-|---|---|



Intro:
          A       D        E                A       D        E         
1:-----------0-----|2-----0---------|----------0-----|2-----0---------|
2:-------------2-3-|--3-----0----3--|3-2-0-------2-3-|--3-----0---3---|
3:-----------------|----2-----------|--------2-------|----2-----------|
4:-----------------|----------2-----|----------------|----------2-----|
5:-------0---------|----------------|----------------|----------------|
6:-0-2-4-----------|----------------|----------------|----------------|

            A               f#
1:-------|----0----------|-----2---2----|
2:-3-2-0-|----2--3--2--0-|-----2-2-2-2--|
3:-------|--2-2--------2-|-----2-2-2-2--|
4:-------|--2------------|--4--4-4---4--|
5:-------|--0------------|--4--4--------|
6:-------|---------------|--2--2--------|
         Er...            ..auch braune..


1.Strophe:
   A                      f#
Er hatte braune Augen und auch braune Haare,
   A                     f#
Er hatte eine Brille und eine Gitarre.
    A                      f#
Auf der Gitarre spielte er bis zur Extase,
        A                    f#                    A    D  A  A7-A6-A
Und die Brille trug er immer auf seiner Nase. Wo-u-hou.


Refrain:
   D    D4  D   f#            E
Er sang wie ein Engel und war überall bekannt.
    D       D4 D   f#            E
Zum Schlafenge-hen hing er die Gitarre an die Wand.
D      D4 D  f#            E           D^4 D
  Doch seine Brille hat er niemals abgesetzt.


D^4 D-Fill:
1:--2^3--3--3^2--2-2--|
2:--3----3--3----3-3--|
3:--2----2--2----2-2--|
4:--------------------|
5:--------------------|
6:--------------------|


f#     E          (-->Intro) A
Wo ist Buddy Holly's Brille  jetzt?

[ Tab from: http://www.guitartabs.cc/tabs/d/die_aerzte/buddy_hollys_brille_crd.html ]
2.Strophe:
A                        f#
Er war schlank und hatte Glück bei den Frauen.
   A                         f#
Er brauchte ihnen nur in die Augen zu schauen.
A                       f#
  Wenn ihn die Brille dabei einmal störte,
     A                     f#                  A    D   A  A7-A6-A
Dann sang er so lange, bis sie ihn erhörte. Wo-u-hou!


Refrain:
   D     D4 D   f#           E
Er stieg in ein Flugzeug und grinste hinaus.
    D    D4  D   f#       E
Von oben sah die Erde überwältigend aus.
    D        D4   D  f#          E           D^4 D
Das Flugzeug stürzte ab, und die Welt war entsetzt.
f#     E          (-->Intro) A
Wo ist Buddy Holly's Brille  jetzt??


Interlude:

4x:
    A            f#
1:-------------|------------------------|
2:--2--3-2--0--|------------------------|
3:--2--2-2--2--|-2(8x)-4^2-2-2--4^2-2-2-|
4:--2--2-2-----|------------------------|
5:-------------|------------------------|
6:-------------|------------------------|

Dann:
    D
1:--2--2-3-2--|-/12-12-12-12-12-12--|
2:--3--3-3-3--|-/12-12-12-12-12-12--|
3:--2--2-2-2--|-/13-13-13-13-13-13--|
4:------------|-/14-14-14-14-14-14--|
5:------------|-/14-14-14-14-14-14--|
6:------------|-/12-12-12-12-12-12--|


3.Strophe:
          A                    f#
Um die verschwundene Brille entstand eine Sage.
   A                       f#
Es hieß, man könne singen, wenn man sie trage.
      A                      f#
Viele Schurken waren deshalb hinter ihr her,
         A                           f#                      A   D A A7-A6-A
Doch von denen trägt die Brille garantiert keiner mehr. Wo-u-hou!


Refrain:
   D               f#            E
Es stand in seinem Testament, es war sein letzter Wille.
      D                f#                 E
"Wenn ihr mich einst begraben müsst, dann nur mit meiner Brille!"
D              f#            E           D^4 D
Damit ist auch dieses Rätsel   endlich gelöst:
      f#            E             (-->Intro) A
Buddy Holly ist mit seiner Brille ver--------west.

    D     D4    D     f#            E
Die ganze Welt (außer Russland) hat Buddy Holly geliebt.
    D     D4   D f#                 E
Als er so jung gestorben ist, waren alle Menschen betrübt.
D       D4  D   f#                E          D^4 D
Und das ist ein guter Grund, sich selber umzubringen.
        f#          E                    f#
Denn im Himmel wird Buddy wieder für uns singen...
Comments