Die Aerzte - Aerzte Thema Chords & Tabs

 

Aerzte Thema Chords & Tabs

Die Aerzte Chords & Tabs

Version: 1 Type: Bass Tab 0 ratings
1 star 2 stars 3 stars 4 stars 5 stars
comments

Aerzte Thema Bass Tab

Ärzte-Theme (Instrumental)
==========================
(M:Felsenheimer/Runge/Urlaub)

Intro:
1:------------------------------------------------------------------------
2:------------------------------------------------------------------------
3:------------------------------------------------------------------------
4:-----8/0----------------------------------------------------------------

Vers
1:------------------------------------------------------------------------
2:------------------------------------------------------------------------
3:---------0-----------------3--2--1--0------------------3--2--1--0-------
4:------------------------------------------------------------------------

1:------------------------------------------------------------------------
2:-------------------------------------------------2-2-----2-2------------
3:--------3--2--1--0----------------------------0--------0-------3--2--1--
4:---------------------------0--0--1-1-2-2-3-3----------------------------

1:------------------------------------------------------------------------
2:---2-2-----2-2----------------2-2-----2-2----------------2-2------------
3:-0------0--------3--2--1--0--------0---------3--2--1--0-----------------
4:---------------------------------------------------------------0--0--1-1

1:------------------------------------------------------------------------
2:--------------2-2------2-2------------0----------0-----------2-2-----2-2
3:----------0---------0-------------------3-2---------3-2--0---------0----
4:-2-2-3-3---------------------------1----------0-------------------------

1:------------------------------------------------------------------------
2:--------------0---------0----------2-2-----2-2---------0----------------
3:-----------------3-2-------3-2--0-------0-----------------3-2-----------
4:------------1--------0-------------------------------1------------------
[ Tab from: http://www.guitartabs.cc/tabs/d/die_aerzte/aerzte_thema_btab.html ]
1:------------------------------------------------------------------------
2:---0---------------2-2----------2-2--------0--------0-------------------
3:-----3-2--------0-----------0-----------------3-2------3-2--------------
4:-0---------------------------------------1---------0--------------------

Bass solo:
6x:
1:------------------------------------------------------------------------
2:------------------------------------------------------------------------
3:------------------------------------------------------------------------
4:--5---5--1---1--0---0---------------------------------------------------
2nd time:Ahhhhhhahhhhahahhhahhhaaaa

1:------------------------------------------------------------------------
2:----2-2----2-2-----------2-2-----2-2------------2-2----2-2--------------
3:--0------0-------3-2-1-0-------0-------3-2-1-0-------0------3-2-1-0-----
4:------------------------------------------------------------------------

1:------------------------------------------------------------------------
2:-2-2--------------------------2-2-----2-2-----------0----------0--------
3:---------------------------0-------0-------------------3-2--------3-2---
4:--------0--0--1-1-2-2-3-3-------------------------1---------0-----------
                                                 
1:------------------------------------------------------------------------
2:-----2-2-----2-2----------0----------0----------------------------------
3:--0-------0------------------3-2--------3-2-----------------------------
4:-----------------------1----------0-------------------------------------

...........          let ring............
1:------------------------------------------------------------------------
2:-----------3--2---------------------------------------------------------
3:-----------------3--1---------------------------------------------------
4:------------------------------------------------------------------------
Comments