Dido - Thank You Chords & Tabs

 

Thank You Chords & Tabs

Dido Chords & Tabs

Version: 1 Type: Bass Tab 0 ratings
1 star 2 stars 3 stars 4 stars 5 stars
comments

Thank You Bass Tab

Standard Tuning

Intro - Each note = 2 beats
G0------0-------0-------0--------0-------0------0------0------------|
D------1-------1-------1-------1-------1-------1-------1------1------|
A--------------------------------------------------------------------|
E--------------------------------------------------------------------|

Ist Verse
G---0------------3---2--------------------------------------------|
D-------1---2-----------------------------------------------------|  x3
A-----------------------------------------------------------------|
E-----------------------------------------------------------------|
[ Tab from: http://www.guitartabs.cc/tabs/d/dido/thank_you_btab.html ]
G----0---------------------0----------0---------------------------|
D--------1------0-----1---------1----------1----------------------|
A-----------------------------------------------------------------|
E-----------------------------------------------------------------|

2nd verse
G-------------------------|
D-------------------------|  x3
A-----------------1---0--|
E----3------1-------------|

G-----------------|
D-----------------|
A-----------------|
E-----3----3------|

Chorus
G-------------------------|
D--------0--1-------------|  x2
A----1--------------------|
E-----------------1-------|

G--------------------------------|
D----0--1----3--0----0-----------|
A-1------------------------3-----|
E--------------------------------|

Chorus x5 till end

Thanks, please rate it after you learn it.
Comments