Dido - Take My Hand Chords & Tabs

 

Take My Hand Chords & Tabs

Dido Chords & Tabs

Version: 2 Type: Tab 0 ratings
1 star 2 stars 3 stars 4 stars 5 stars
comments

Take My Hand Tab

   
SONG:   TAKE MY HAND
ARTIST: DIDO
ALBUM:  NO ANGEL

INTRO:
 
   Touch my skin
   and tell me what you're thinking,

e::-----------------10-12--------------:
B::--------------10--------------------:
G::------------------------------------:
D::------------------------------------:
A::------------------------------------:
E::------------------------------------:
   take my hand

e:-------------------------------12/-\-----------------:
B:-----------------------------------------------------:
G:-----------------------------------------------------:
D:-----------------------------------------------------:
A:-----------------------------------------------------:
E:-----------------------------------------------------:
   and show me where we're going
   lie down next to me 

e:-----------------------5-----------5\3---------------:
B:-----------------------------------------------------:
G:-------------------4/6-------------------------------:
D:-----------------------------------------------------:
A:-----------------------------------------------------:
E:-----------------------------------------------------:
   look into my eyes                   and tell me,
[ Tab from: http://www.guitartabs.cc/tabs/d/dido/take_my_hand_tab_ver_2.html ]
e:-------------------------------5\2-------------------:
B:-----------------------------------4-----------------:
G:-----------------------------------------------------:
D:-----------------------------------------------------:
A:-----------------------------------------------------:
E:-----------------------------------------------------:
   oh tell me what you're seeing 

    Em                            C                  G
e:--0-----------------------------3------------------3-----:
B:--2-----------------------------3------------------2-----:
G:--2-----------------------------2------------------0-----:
D:--0-----------------------------0------------------0-----:
A:--0-----------------------------1------------------0-----:
E:--x-----------------------------x------------------3-----:
   so sit on top of the world and tell me how you're feeling

e:--5\3-----5---------------------------------------------:
B:------2/4---7-10-10b7r7---------------------------------:
G:--------------------------------------------------------:
D:--------------------------------------------------------:
A:--------------------------------------------------------:
E:--------------------------------------------------------:

    Em          C              G
e:--0-----------3--------------3-------------------------:
B:--2-----------3--------------2-------------------------:
G:--2-----------2--------------0-------------------------:
D:--0-----------0--------------0-------------------------:
A:--0-----------1--------------0-------------------------:
E:--x-----------x--------------3-------------------------:
   what you feel now is what i feel for you


tabbed by Daginho
Comments