Dido - Here With Me Chords & Tabs

 

Here With Me Chords & Tabs

Dido Chords & Tabs

Version: 2 Type: Tab 0 ratings
1 star 2 stars 3 stars 4 stars 5 stars
comments

Here With Me Tab

artis: DIDO
number: here with me
tabber: jurre ( skateboard_rules_1@hotmail.com )

[ Tab from: http://www.guitartabs.cc/tabs/d/dido/here_with_me_tab_ver_2.html ]
RIFF1 (BASS)
G:-------------------------------------------------------:
D:----4---2----------------------------------------------:
A:------------1---4-5------------------------------------:
E:-------------------------------------------------------:
 
RIFF2 (ELECTRIC GUITAR 1)
e:------------------------------------------:
B:------------------------------------------:
G:------------------------------------------:
D:------------------------------------------:
A:--7-----7-----7-----7-----7-----7---------:
E:----9-----9-----9-----9-----9-----9-------:
 
RIFF3 (ELECTRIC GUITAR 3)
e:-----------------------------------------------------:
B:----0-------------------------------------1----------:
G:----------------------------------------4-------2-0--:
D:--------4-3------------------------------------------:
A:-----------------------------------------------------:
E:-----------------------------------------------------:

RIFF4 (BASS)
G:-------------------------------------------------------:
D:----4---2------------------4---------------------------:
A:------------1---4-5------------------------------------:
E:-------------------------------------------------------:

RIFF5 (BASS)
G:-------------------------------------------------------:
D:-------------------------------------------------------:
A:---3---------------------3-----------------------------:
E:-------6---1---3-4------------1------------------------:
Comments