Dickinson Bruce - Tattooed Millionaire Chords & Tabs

 

Tattooed Millionaire Chords & Tabs

Dickinson Bruce Chords & Tabs

Version: 1 Type: Chords 0 ratings
1 star 2 stars 3 stars 4 stars 5 stars
comments

Tattooed Millionaire Chords

   
Tattooed millionaire
bruce dickinson

b -bend
~ -let ring

INTRO
e---------------------------------------------
b-10-10-10-9--5-5-5-4--10-10-10-9-10-12-12-
g-9--9--9--9--4-4-4-4--9--9--9--9-9--11-11-
d---------------------------------------------
a---------------------------------------------
e---------------------------------------------

Verse
e-------------------------------
b-------------------------------
g-2--4--------2--4--6-64-4/6-6-
d-2--4--6--7--2--4--6-64-4/6-6-
a-0--2--6--7--0--2--4-42-2/4-4-
e-------4--5--------------------
[ Tab from: http://www.guitartabs.cc/tabs/d/dickinson_bruce/tattooed_millionaire_crd.html ]
Bridge -x2
e--------0-----------0----------0----------0-
b----------0-----------0----------0----------
g-----------------4---------------------2----
d-----2---------4------------5--------2------
a---2---------2------------5--------0--------
e-0----------------------4-------------------

Chorus -x2 
e----------------------------
b----------------------------
g-----0-----0-----0-----0--2-
d---2-----2-----2-----2----2-
a-0-----0-----0-----0------0-
e----------------------------

Bridge before Solo/Outro -x2
e----------------------------------------------------------12-----------
b------9-10-9-----------9-10-9----------9-10-9-------12b14----12b14-12~-
g-9-11--------11---9-11--------11--9-11--------11--9--------------------
d-----------------------------------------------------------------------
a-----------------------------------------------------------------------
e-----------------------------------------------------------------------

Beginning of Solo/after this the Solo Rhythm is the same as ver
Comments