Dick Dale - Riders In The Sky Chords & Tabs

 

Riders In The Sky Chords & Tabs

Dick Dale Chords & Tabs

Version: 4 Type: Tab 0 ratings
1 star 2 stars 3 stars 4 stars 5 stars
comments

Riders In The Sky Tab

Song: Riders in the Sky
Artist: Dick Dale and his Del-Tones
Tabbed By: Bruce W.
Email: ridersinthesky_85@hotmail.com
July 4, 2005

Double Pick all entries unless otherwise noted

Intro:
e----------------------------------------------|
B----------------------------------------------|
G----------------------------------------------|
D----------------------------------------------|
A---0--0-0-0-2-3-3-3-3-0-----------------------|
E-0----------------------3-3-3-0-3-------------|

e----------------------------------------------|
B----------------------------------------------|
G----------------------------------------------|
D----------------------0-2-2-2-0-2-------------|
A---0--0-0-0-2-3-3-3-3-------------------------|
E----------------------------------------------|

e-------------------------------------------------------|
B-------------------------------------------------------|
G-----2-2-2-2-------------------------------------------|
D--2----------2-2-2-2-0---------------------------------|
A-----------------------3-0---0---------3-3-3-0-0-0-----|
E-------------------------------1-1-1-1-----------------|

e----------------------------------------------|
B----------------------------------------------|
G----------------------------------------------|
D----------------------------------------------|
A---0--0-0-0-2-3-3-3-3-0-----------------------|
E-0----------------------3-3-3-0-3-------------|

e----------------------------------------------|
B----------------------------------------------|
G----------------------------------------------|
D----------------------0-2-2-2-0-2-------------|
A---0--0-0-0-2-3-3-3-3-------------------------|
E----------------------------------------------|

e-------------------------------------------------------|
B-------------------------------------------------------|
G-----2-2-2-2-------------------------------------------|
D--2----------2-2-2-2-0---------------------------------|
A-----------------------3-0---0---------3-3-3-0-0-0-----|
E-------------------------------1-1-1-1-----------------|

             Single Pick-----------------------------------|
e----------------------------------------------------------|
B----------------------------------------------------------|
G--------------------0---2-2-2-2---------------------------|
D--------------2-2-2-------------2-2-----------------------|
A-0--0-0-0--0---------------------------------3-3-3-0-0-0--|
E-------------------------------------1-1-1-1--------------|
[ Tab from: http://www.guitartabs.cc/tabs/d/dick_dale/riders_in_the_sky_tab_ver_4.html ]
			                Single pick----
e---------------------------------------------------------|
B----------------------------------------3-3/15-15-15-8/3-|
G-----2-2-2-2-1-1-1-0-0-2-2-0-0-0-2-----------------------|
D-2-2-------------------------------2-2-------------------|
A---------------------------------------------------------|
E---------------------------------------------------------|
	                                   Single pick----
e---------------------------------------------------------|
B---------------------------------------------------------|
G-----2-2-2--1-1-1-0-0-2-2-0-0--2-------------------------|
D-2-2-----------------------------2-2-2-2-----------------|
A-----------------------------------------0-3-4-5-5-5-3-0-|
E---------------------------------------------------------|

e----------------------------------------------|
B---------3-3-3-3-2-1-3-3-1-3------------------|
G-2-2-2-2---------------------2-2-2------------|
D----------------------------------------------|
A----------------------------------------------|
E----------------------------------------------|

e---------------------------------------------|
B---------------------------------------------|
G-----2-2-2-2-1-1-1-0-0-2-2-0-0-0-2-----------|
D-2-2-------------------------------2-2-------|
A---------------------------------------------|
E---------------------------------------------|

  Single Pick This Whole Section
e---------------------------------------------------------|
B---------------------------------------------------------|
G---------------------------------------------------------|
D---------------------------------------------------------|
A--------------------------5-5-5-5b--5-3------------------|
E-0-3-4-5-5b-5b-5b-5b-3-5----------------0-5-5-5-5b-5-3-5-|

e---------------------------------------------------------|
B---------------------------------------------------------|
G---------------------------------------------------------|
D---------------------------------------------------------|
A--------------------------5-5-5-5b--5-3------------------|
E-0-3-4-5-5b-5b-5b-5b-3-5----------------0-5-5-5-5b-5-3-5-|


e----------------------------------------------|
B----------------------------------------------|
G----------------------------------------------|
D----------------------------------------------|
A---0--0-0-0-2-3-3-3-3-0-----------------------|
E-0----------------------3-3-3-0-3-------------|

e----------------------------------------------|
B----------------------------------------------|
G----------------------------------------------|
D----------------------0-2-2-2-0-2-------------|
A---0--0-0-0-2-3-3-3-3-------------------------|
E----------------------------------------------|

e-------------------------------------------------------|
B-------------------------------------------------------|
G-----2-2-2-2-------------------------------------------|
D--2----------2-2-2-2-0---------------------------------|
A-----------------------3-0---0---------3-3-3-0-0-0-----|
E-------------------------------1-1-1-1-----------------|

e----------------------------------------------|
B----------------------------------------------|
G----------------------------------------------|
D----------------------------------------------|
A---0--0-0-0-2-3-3-3-3-0-----------------------|
E-0----------------------3-3-3-0-3-------------|

e----------------------------------------------|
B----------------------------------------------|
G----------------------------------------------|
D----------------------0-2-2-2-0-2-------------|
A---0--0-0-0-2-3-3-3-3-------------------------|
E----------------------------------------------|
Comments