Dick Brave And The Backbeats - Complicated Chords & Tabs

 

Complicated Chords & Tabs

Dick Brave And The Backbeats Chords & Tabs

Version: 1 Type: Tab 0 ratings
1 star 2 stars 3 stars 4 stars 5 stars
comments

Complicated Tab

   
artist: Dick Brave & the Backbeats
song: Complicated

tabbey by C. Becker (beckerc.konz@web.de)

I'm wondering why nobody has tabbed this song, yet. So I gonna do it.
Standard R'n'R...

Verse:		C		Am		F		G
(== Brigde)

Chorus:		Am	F			C		G


Some a groovy basic style for guitar and /or bassguitar...

Intro / Rhythm groove...
   C                       Am                      F
    |  |  |  |             |  |  |  |              |  |  |  |
e |----------------------|-----------------------|-------------------------|
B |----------------------|-----------------------|-------------------------|
G |----------------------|-----------------------|-------------------------|
D |------2---5----.//.---|----------------.//.---|------------------.//.---|
A |-3--------------------|------3---7------------|------0---4--------------|
E |----------------------|-5---------------------|-1-----------------------|
[ Tab from: http://www.guitartabs.cc/tabs/d/dick_brave_and_the_backbeats/complicated_tab.html ]
    G                   
    |  |  |  |                   
e |--------------------------------|                  
B |--------------------------------|                  
G |-------------------------------o|                  
D |---------------5-5-3-3-2-2-----o|                  
A |------2---5----------------5-5--|                  
E |-3------------------------------|                  


Chill out - what you yellin for? 
Lay back it's all been done before 
And if you could only let it be, you will see 

I like you the way you are 
When we're drivin in your car 
And you're talkin to me one-on-one when you become 

[Bridge]
Somebody else 
Round everyone else 
Watchin your back like you can't relax 
You tryin to be cool 
You look like a fool to me 
Tell me 

[Chorus]
Why'd complicated? 
I see the way you're actin' (so frustrated) 
Life's like this you 
You fall and you crawl and you break and you take what you get 
And you turnin into honestly, you promised me 
I'm never gonna find you fake it 
No No No 

You come over unannounced 
Dressed up like you're somethin' else 
Where you are and where it's at you see 
You're makin me 
Laugh out when you strike a pose 
Take off all your pretty clothes 
You know you're not foolin anyone when you become 

[Bridge]
Somebody else 
Round everyone else 
Watchin your back 
Like you can't relax 
You tryin to be cool 
You look like a fool to me 
Tell me 

[Chrous]
Why'd complicated? 
I see the way you're actin' (so frustrated) 
Life's like this you 
You fall and you crawl and you break and you take what you get 
And you turnin into honestly, you promised me 
I'm never gonna find you fake it 

No no no 
(no no no) 
No no 
(no no no) 
No no 
(no no no) 
No no 

[Chorus 2x]


Enjoy.
Comments