Diamond Head - To Heaven From Hell Chords & Tabs

 

To Heaven From Hell Chords & Tabs

Diamond Head Chords & Tabs

Version: 1 Type: Tab 0 ratings
1 star 2 stars 3 stars 4 stars 5 stars
comments

To Heaven From Hell Tab

   
Band- Diamond Head
Song- To Heaven From Hell
Album Borrowed Time (1982)

Tabbed By Jared Kiess (FortysixandTOOL@msn.com)



Intro    x8
    A5		
e|------------------|
B|------------------|
G|--2--------5--7---|
D|--2--------5--7---|
A|--0-------0-------|
E|------------------|



verse:  :50		x 14
e|------------|-------------------|
B|------------|-------------------|
G|--------5---|-----7---------5---|
D|--2-----5---|-----7---------5---|
A|--0---------|--0--5--0-0----3---|
E|------------|-------------------|



Chorus (same as intro) 1:27 x8 
e|------------------|
B|------------------|
G|--2--------5--7---|
D|--2--------5--7---|
A|--0-------0-------|
E|------------------|


Second Verse

Chorus  2:45


Break after second Chorus	3:14   X4		 
e|-----------------------------------------------|
B|-----------------------------------------------|
G|-----------------------------------------------|
D|-----------------------------7p5---5-----------|
A|--0--0-0-0-0-0----0-0-0-0-0------7----5p3---3--|
E|------------------------------------------5----|

						           x4
e|-----------------------------|-----------------------------|
B|-----------------------------|-----------------------------|
G|-----------------------------|-------------5---7-----------|
D|-----------------------------|-------------5---7-----------|
A|--0--0-0-0-0-0----0-0-0-0-0--|--0--0-0-0---3---5-----------|
E|-----------------------------|-----------------------------|

e|-----------------------------|-----------------------------|
B|-----------------------------|-----------------------------|
G|-----------------------------|-------------5---7-----------|
D|-----------------------------|-------------5-5-7-----------|
A|--0--0-0-0-0-0----0-0-0-0-0--|--0--0-0-0---3-5-5-----------|
E|-----------------------------|---------------3-------------|
play that again

solo


[ Tab from: http://www.guitartabs.cc/tabs/d/diamond_head/to_heaven_from_hell_tab.html ]
interlude  4:44			        		    x4
e|-----------------------------|-----------------------------|
B|-----------------------------|-----------------------------|
G|-----------------------------|-----------------------------|
D|--------5p3p0--10--------|--------5p3p0--10--------|
A|--0---0----------------------|--0---0----------------------|
E|-----------------------------|-----------------------------|
							     last time only
e|-----------------------------|-----------------------------|----------------|
B|-----------------------------|-----------------------------|----------------|
G|-----------------------------|-----------------------------|----------------|
D|--------5p3p0--10--------|--10p9\7-9p7\5-7p5\3-5p3\1---|--7p5\3-5p3\1---|
A|--0---0----------------------|-----------------------------|--------------0-|
E|-----------------------------|-----------------------------|----------------|
				

Bridge:
   F5
e|-----------------------------------------------|
B|-----------------------------------------------|
G|-----------------------------------------------|
D|-----------------------------------------------|
A|--3--3-3-3-3-3--3-3-3-3-3--3-3-3-3-3--3-3-3-3--|
E|--1--1-1-1-1-1--1-1-1-1-1--1-1-1-1-1--1-1-1-1--|
    G5
e|-----------------------------------------------|
B|-----------------------------------------------|
G|-----------------------------------------------|
D|-----------------------------------------------|
A|--5--5-5-5-5-5--5-5-5-5-5--5-5-5-5-5--5-5-5-5--|
E|--3--3-3-3-3-3--3-3-3-3-3--3-3-3-3-3--3-3-3-3--|


5:14
e|---------------------------------------------
B|---------------------------------------------
G|---------------------------------------------
D|---------------------------7p5---5-----------
A|-------------------------------7----5p3---3--
E|--5--5-5-5-5-5----5-5-5-5---------------5----

e|----------------------------------------------
B|----------------------------------------------
G|----------------------------------------------
D|----------------------------7p5---5-----------
A|--------------------------------7----5p3---3--
E|--1--1-1-1-1-1-----1-1-1-1---------------5----


interlude


Ending		x4		x4 A5
e|---------------|--------------|-----
B|---------------|--------------|-----
G|---------------|--------------|-----
D|--5h7-7-7-7-7--|--------------|--7\-
A|---------------|--------------|--7\-
E|---------------|--3h5-5-5-5-5-|--5\-



legend:
p - pulloff
h - hammer-on
/ or \ - slide up or down
 - pinch harmonic


Any corrections or comments, send em to me (fortysixandTOOL@msn.com)
Comments