Diablotones - What Glory Chords & Tabs

 

What Glory Chords & Tabs

Diablotones Chords & Tabs

Version: 1 Type: Tab 0 ratings
1 star 2 stars 3 stars 4 stars 5 stars
comments

What Glory Tab

   
Song: What Glory?
Artist: The Diablotones
Album: Dia De Los Muertos

This song is pretty easy to play once you get the hang of it. This is a really fun song by a great band!

INTRO:
      Em	   B	 B	 Em
e|-----------2--2--2--2--2--2------------|
B|-----------4--4--4--4--4--4------------|
G|-----------4--4--4--4--4--4------------|
D|--2--2--2--4--4--4--4--4--4--2--2--2---|
A|--2--2--2--2--2--2--2--2--2--2--2--2---|
E|---------------------------------------|

      Em	B        B	 Em
e|-----------2--2--2--2--2--2------------|
B|-----------4--4--4--4--4--4------------|
G|-----------4--4--4--4--4--4------------|
D|--2--2--2--4--4--4--4--4--4--2--2--2---|
A|--2--2--2--2--2--2--2--2--2--2--2--2---|
E|---------------------------------------|

      Em	B	 B	 Em
e|-----------2--2--2--2--2--2------------|
B|-----------4--4--4--4--4--4------------|
G|-----------4--4--4--4--4--4------------|
D|--2--2--2--4--4--4--4--4--4--2--2--2---|
A|--2--2--2--2--2--2--2--2--2--2--2--2---|
E|---------------------------------------|

      Em	B	 B	 Em
e|-----------2--2--2--2--2--2------------|
B|-----------4--4--4--4--4--4------------|
G|-----------4--4--4--4--4--4------------|
D|--2--2--2--4--4--4--4--4--4--2--2--2---|
A|--2--2--2--2--2--2--2--2--2--2--2--2---|
E|---------------------------------------|

Instrumental verse:
       Em  	   C          B	     Am   G  F#
e|------------------------2-2-2-2-2-------3--2--|
B|-------------1-1-1-1-1--4-4-4-4-4--1-1-----2--|
G|------------------------4-4-4-4-4--2-2-----2--|
D|--2-2-2-2-2--2-2-2-2-2--4-4-4-4-4--2-2-----4--|
A|--2-2-2-2-2--2-2-2-2-2--2-2-2-2-2-------2--4--|
E|----------------------------------------3--2--|

       Em          C          B	     Am   G  F#
e|------------------------2-2-2-2-2-------3--2--|
B|-------------1-1-1-1-1--4-4-4-4-4--1-1-----2--|
G|------------------------4-4-4-4-4--2-2-----2--|
D|--2-2-2-2-2--2-2-2-2-2--4-4-4-4-4--2-2-----4--|
A|--2-2-2-2-2--2-2-2-2-2--2-2-2-2-2-------2--4--|
E|----------------------------------------3--2--|

        Em         C          B	     Am   G  F#
e|------------------------2-2-2-2-2-------3--2--|
B|-------------1-1-1-1-1--4-4-4-4-4--1-1-----2--|
G|------------------------4-4-4-4-4--2-2-----2--|
D|--2-2-2-2-2--2-2-2-2-2--4-4-4-4-4--2-2-----4--|
A|--2-2-2-2-2--2-2-2-2-2--2-2-2-2-2-------2--4--|
E|----------------------------------------3--2--|

       Em  	   C          B	     Am   G  F#
e|------------------------2-2-2-2-2-------3--2--|
B|-------------1-1-1-1-1--4-4-4-4-4--1-1-----2--|
G|------------------------4-4-4-4-4--2-2-----2--|
D|--2-2-2-2-2--2-2-2-2-2--4-4-4-4-4--2-2-----4--|
A|--2-2-2-2-2--2-2-2-2-2--2-2-2-2-2-------2--4--|
E|----------------------------------------3--2--|

Verse:
       Em  	   C          B	     Am   G  F#
e|------------------------2-2-2-2-2-------3--2--|
B|-------------1-1-1-1-1--4-4-4-4-4--1-1-----2--|
G|------------------------4-4-4-4-4--2-2-----2--|
D|--2-2-2-2-2--2-2-2-2-2--4-4-4-4-4--2-2-----4--|
A|--2-2-2-2-2--2-2-2-2-2--2-2-2-2-2-------2--4--|
E|----------------------------------------3--2--|

       Em  	   C          B	     Am   G  F#
e|------------------------2-2-2-2-2-------3--2--|
B|-------------1-1-1-1-1--4-4-4-4-4--1-1-----2--|
G|------------------------4-4-4-4-4--2-2-----2--|
D|--2-2-2-2-2--2-2-2-2-2--4-4-4-4-4--2-2-----4--|
A|--2-2-2-2-2--2-2-2-2-2--2-2-2-2-2-------2--4--|
E|----------------------------------------3--2--|

       Em  	   C          B	     Am   G  F#
e|------------------------2-2-2-2-2-------3--2--|
B|-------------1-1-1-1-1--4-4-4-4-4--1-1-----2--|
G|------------------------4-4-4-4-4--2-2-----2--|
D|--2-2-2-2-2--2-2-2-2-2--4-4-4-4-4--2-2-----4--|
A|--2-2-2-2-2--2-2-2-2-2--2-2-2-2-2-------2--4--|
E|----------------------------------------3--2--|

       Em  	   C          B      Am   G  F#
e|------------------------2-2-2-2-2-------3--2--|
B|-------------1-1-1-1-1--4-4-4-4-4--1-1-----2--|
G|------------------------4-4-4-4-4--2-2-----2--|
D|--2-2-2-2-2--2-2-2-2-2--4-4-4-4-4--2-2-----4--|
A|--2-2-2-2-2--2-2-2-2-2--2-2-2-2-2-------2--4--|
E|----------------------------------------3--2--|

Chorus:
     Fm   Em   Fm   Em   Fm     Em      B     A   G  F#    
e|--1-1-1-----1-1-1-----1-1-1---------2-2-2-------3--2--|
B|--1-1-1-----1-1-1-----1-1-1---------4-4-4--2-2-----2--|
G|--1-1-1-----1-1-1-----1-1-1---------4-4-4--2-2-----2--|
D|--3-3-3--2--3-3-3--2--3-3-3--2-2-2--4-4-4--2-2-----4--|
A|--3-3-3--2--3-3-3--2--3-3-3--2-2-2--2-2-2-------2--4--|
E|--1-1-1-----1-1-1-----1-1-1---------------------3--2--|

Instrumental verse with horn solo:
       Em  	   C          B	     Am   G  F#
e|------------------------2-2-2-2-2-------3--2--|
B|-------------1-1-1-1-1--4-4-4-4-4--1-1-----2--|
G|------------------------4-4-4-4-4--2-2-----2--|
D|--2-2-2-2-2--2-2-2-2-2--4-4-4-4-4--2-2-----4--|
A|--2-2-2-2-2--2-2-2-2-2--2-2-2-2-2-------2--4--|
E|----------------------------------------3--2--|

       Em  	   C          B	     Am   G  F#
e|------------------------2-2-2-2-2-------3--2--|
B|-------------1-1-1-1-1--4-4-4-4-4--1-1-----2--|
G|------------------------4-4-4-4-4--2-2-----2--|
D|--2-2-2-2-2--2-2-2-2-2--4-4-4-4-4--2-2-----4--|
A|--2-2-2-2-2--2-2-2-2-2--2-2-2-2-2-------2--4--|
E|----------------------------------------3--2--|
[ Tab from: http://www.guitartabs.cc/tabs/d/diablotones/what_glory_tab.html ]
       Em          C          B	     Am   G  F#
e|------------------------2-2-2-2-2-------3--2--|
B|-------------1-1-1-1-1--4-4-4-4-4--1-1-----2--|
G|------------------------4-4-4-4-4--2-2-----2--|
D|--2-2-2-2-2--2-2-2-2-2--4-4-4-4-4--2-2-----4--|
A|--2-2-2-2-2--2-2-2-2-2--2-2-2-2-2-------2--4--|
E|----------------------------------------3--2--|

       Em  	   C          B	     Am   G  F#
e|------------------------2-2-2-2-2-------3--2--|
B|-------------1-1-1-1-1--4-4-4-4-4--1-1-----2--|
G|------------------------4-4-4-4-4--2-2-----2--|
D|--2-2-2-2-2--2-2-2-2-2--4-4-4-4-4--2-2-----4--|
A|--2-2-2-2-2--2-2-2-2-2--2-2-2-2-2-------2--4--|
E|----------------------------------------3--2--|

Verse:
       Em  	   C          B	     Am   G  F#
e|------------------------2-2-2-2-2-------3--2--|
B|-------------1-1-1-1-1--4-4-4-4-4--1-1-----2--|
G|------------------------4-4-4-4-4--2-2-----2--|
D|--2-2-2-2-2--2-2-2-2-2--4-4-4-4-4--2-2-----4--|
A|--2-2-2-2-2--2-2-2-2-2--2-2-2-2-2-------2--4--|
E|----------------------------------------3--2--|

       Em  	   C          B	     Am   G  F#
e|------------------------2-2-2-2-2-------3--2--|
B|-------------1-1-1-1-1--4-4-4-4-4--1-1-----2--|
G|------------------------4-4-4-4-4--2-2-----2--|
D|--2-2-2-2-2--2-2-2-2-2--4-4-4-4-4--2-2-----4--|
A|--2-2-2-2-2--2-2-2-2-2--2-2-2-2-2-------2--4--|
E|----------------------------------------3--2--|

       Em  	   C          B	     Am   G  F#
e|------------------------2-2-2-2-2-------3--2--|
B|-------------1-1-1-1-1--4-4-4-4-4--1-1-----2--|
G|------------------------4-4-4-4-4--2-2-----2--|
D|--2-2-2-2-2--2-2-2-2-2--4-4-4-4-4--2-2-----4--|
A|--2-2-2-2-2--2-2-2-2-2--2-2-2-2-2-------2--4--|
E|----------------------------------------3--2--|

       Em  	   C          B	     Am   G  F#
e|------------------------2-2-2-2-2-------3--2--|
B|-------------1-1-1-1-1--4-4-4-4-4--1-1-----2--|
G|------------------------4-4-4-4-4--2-2-----2--|
D|--2-2-2-2-2--2-2-2-2-2--4-4-4-4-4--2-2-----4--|
A|--2-2-2-2-2--2-2-2-2-2--2-2-2-2-2-------2--4--|
E|----------------------------------------3--2--|

Chorus:
     Fm   Em   Fm   Em   Fm     Em      B     A   G  F#    
e|--1-1-1-----1-1-1-----1-1-1---------2-2-2-------3--2--|
B|--1-1-1-----1-1-1-----1-1-1---------4-4-4--2-2-----2--|
G|--1-1-1-----1-1-1-----1-1-1---------4-4-4--2-2-----2--|
D|--3-3-3--2--3-3-3--2--3-3-3--2-2-2--4-4-4--2-2-----4--|
A|--3-3-3--2--3-3-3--2--3-3-3--2-2-2--2-2-2-------2--4--|
E|--1-1-1-----1-1-1-----1-1-1---------------------3--2--|

Instrumental verse with organ solo:
       Em  	   C          B	     Am   G  F#
e|------------------------2-2-2-2-2-------3--2--|
B|-------------1-1-1-1-1--4-4-4-4-4--1-1-----2--|
G|------------------------4-4-4-4-4--2-2-----2--|
D|--2-2-2-2-2--2-2-2-2-2--4-4-4-4-4--2-2-----4--|
A|--2-2-2-2-2--2-2-2-2-2--2-2-2-2-2-------2--4--|
E|----------------------------------------3--2--|

       Em  	   C          B	     Am   G  F#
e|------------------------2-2-2-2-2-------3--2--|
B|-------------1-1-1-1-1--4-4-4-4-4--1-1-----2--|
G|------------------------4-4-4-4-4--2-2-----2--|
D|--2-2-2-2-2--2-2-2-2-2--4-4-4-4-4--2-2-----4--|
A|--2-2-2-2-2--2-2-2-2-2--2-2-2-2-2-------2--4--|
E|----------------------------------------3--2--|

       Em  	   C          B	     Am   G  F#
e|------------------------2-2-2-2-2-------3--2--|
B|-------------1-1-1-1-1--4-4-4-4-4--1-1-----2--|
G|------------------------4-4-4-4-4--2-2-----2--|
D|--2-2-2-2-2--2-2-2-2-2--4-4-4-4-4--2-2-----4--|
A|--2-2-2-2-2--2-2-2-2-2--2-2-2-2-2-------2--4--|
E|----------------------------------------3--2--|

       Em  	   C          B	     Am   G  F#
e|------------------------2-2-2-2-2-------3--2--|
B|-------------1-1-1-1-1--4-4-4-4-4--1-1-----2--|
G|------------------------4-4-4-4-4--2-2-----2--|
D|--2-2-2-2-2--2-2-2-2-2--4-4-4-4-4--2-2-----4--|
A|--2-2-2-2-2--2-2-2-2-2--2-2-2-2-2-------2--4--|
E|----------------------------------------3--2--|
 Chorus:
     Fm   Em   Fm   Em   Fm     Em      B     A   G  F#    
e|--1-1-1-----1-1-1-----1-1-1---------2-2-2-------3--2--|
B|--1-1-1-----1-1-1-----1-1-1---------4-4-4--2-2-----2--|
G|--1-1-1-----1-1-1-----1-1-1---------4-4-4--2-2-----2--|
D|--3-3-3--2--3-3-3--2--3-3-3--2-2-2--4-4-4--2-2-----4--|
A|--3-3-3--2--3-3-3--2--3-3-3--2-2-2--2-2-2-------2--4--|
E|--1-1-1-----1-1-1-----1-1-1---------------------3--2--|

      E         B	 B       Em
e|-----------2--2--2--2--2--2------------|
B|-----------4--4--4--4--4--4------------|
G|-----------4--4--4--4--4--4------------|
D|--2--2--2--4--4--4--4--4--4--2--2--2---|
A|--2--2--2--2--2--2--2--2--2--2--2--2---|
E|---------------------------------------|

      Em	B	 B       Em
e|-----------2--2--2--2--2--2------------|
B|-----------4--4--4--4--4--4------------|
G|-----------4--4--4--4--4--4------------|
D|--2--2--2--4--4--4--4--4--4--2--2--2---|
A|--2--2--2--2--2--2--2--2--2--2--2--2---|
E|---------------------------------------|

      Em	B	 B	 Em
e|-----------2--2--2--2--2--2------------|
B|-----------4--4--4--4--4--4------------|
G|-----------4--4--4--4--4--4------------|
D|--2--2--2--4--4--4--4--4--4--2--2--2---|
A|--2--2--2--2--2--2--2--2--2--2--2--2---|
E|---------------------------------------|

      Em	B	 B	 Em
e|-----------2--2--2--2--2--2------------|
B|-----------4--4--4--4--4--4------------|
G|-----------4--4--4--4--4--4------------|
D|--2--2--2--4--4--4--4--4--4--2--2--2---|
A|--2--2--2--2--2--2--2--2--2--2--2--2---|
E|---------------------------------------|

double horn solo
only horns play melody
last chord = Em

Questions/comments? erinsbabyjen@hotmail.com
Comments