Dht - Listen To Your Heart Chords & Tabs

 

Listen To Your Heart Chords & Tabs

Dht Chords & Tabs

Version: 1 Type: Tab 0 ratings
1 star 2 stars 3 stars 4 stars 5 stars
comments

Listen To Your Heart Tab

INTRO

e---------0-3-1-0-----0--|
B-------1---------3-1----|
G-----2------------------|
D------------------------|
A--0------------------0--|
E-----------1-----3------|
[ Tab from: http://www.guitartabs.cc/tabs/d/dht/listen_to_your_heart_tab.html ]
e----0-3-1-0--------------0--------|
B--1---------3-1----0-1-3---1-0----|
G-------------------------------2--|
D----------------------------------|
A--0------------------------0------|
E--------------1--------3----------|


e---------0-3-1-0-----0--|
B-------1---------3-1----|
G-----2------------------|
D------------------------|
A--0------------------0--|
E-----------1-----3------|

e----0-3-1-0---------------------|
B--1---------3-1----0-1-3--------|
G--------------------------------|
D--------------------------------|
A--0-----------------------------|
E--------------1--------3--------|
Comments