Dexter Freebish - Leaving Town Chords & Tabs

 

Leaving Town Chords & Tabs

Dexter Freebish Chords & Tabs

Version: 5 Type: Tab 0 ratings
1 star 2 stars 3 stars 4 stars 5 stars
comments

Leaving Town Tab

Song: Leaving Town
Artist: Dexter Freebish
Tabbed by: Chris


     This is a real easy song to play.  There is only one guitar riff
for almost the entire song.

  The _(intro)_:

E------------------------------------------------------------------------------------------|
B-9--9--9--9--10--10--10--10--9--9--9--9--7--7--7-9-7--------------------------------------|
G---9--9--9--9---9---9---9---9--9--9--9--9--9--9------9------------------------------------|
D------------------------------------------------------------------------------------------|
A------------------------------------------------------------------------------------------|
E------------------------------------------------------------------------------------------|
[ Tab from: http://www.guitartabs.cc/tabs/d/dexter_freebish/leaving_town_tab_ver_5.html ]
  The _(verse)_:Listen to the rythym of the chords to get right with the lyrics
and the timing.


E--X---X---X---X-------------------------------------|
B--X---X---X---X-------------------------------------|
G--1---2---6---4-------------------------------------|
D--2---2---6---4-------------------------------------|
A--2---0---4---2-------------------------------------|
E--X---X---X---X-------------------------------------|
    For the chorus, you play the same chords, but you just play it
    faster. The only difference from the verse to the chorus is to just un mute the
    other strings.

    and thats all folks. Great song for those of you who are goin off to college and losing
    a girlfriend, or the other way around. Girl goin to school and leaving
    you.
Comments