Dexter Freebish - Leaving Town Chords & Tabs

 

Leaving Town Chords & Tabs

Dexter Freebish Chords & Tabs

Version: 2 Type: Bass Tab 0 ratings
1 star 2 stars 3 stars 4 stars 5 stars
comments

Leaving Town Bass Tab

   
Song: Leaving Town
Artist: Dexter Freebish
Album: a Life of Saturdays
Chord Structure by Tara Martin (purple_lamas@hotmail.com)
Additions and all Fills by Beelzebob (blzbob@hotmail.com)

First Verse: 3 Quiet, 5 Normal
G|-----------------------------------------------------------------|-
D|-----------------------------------------------------------------|-
A|---------------------------------5-5-5-5-5-5-5-5-3-3-3-3-3-3-3-3-|-
E|-1-1-1-1-1-1-1-1/6-6-6-6-6-6-6-6---------------------------------|-

First Chorus: 3 Times
G|---------------------------------|---------------------------------|-
D|-----------------0-0-0-0---------|---------------------------------|-
A|---------1-1-1-1---------3-3-3-3-|-1-1-1-1-1-1-1-1-3-3-3-3-3-3-3-3-|-
E|-1-1-1-1-------------------------|---------------------------------|-

Second Verse:
G|-----------------------------------------------------------------
D|---------------------------------------------------------2-3-2---
A|---------------------------------5-5-5-5-5-5-5-5-3-3-3-3-------3-
E|-1-1-1-1-1-1-1-1/6-6-6-6-6-6-6-6---------------------------------

G-----------------------------------------------------------------
D-----------------------------------------------------2-----2-----
A---------------------------------5-5-5-5-5-5-5-5-3-3---3-3---3-3-
E-1-1-1-1-1-1-1-1/6-6-6-6-6-6-6-6---------------------------------

G-----------------------------------------------------------------
D-----------------------------------------------------------------
A---------------------------------5-5-5-5-5-5-5-5-7-7-7-7-7-7-7-7-
E-1-1-1-1-1-1-1-1/6-6-6-6-6-6-6-6---------------------------------

G-----------------------------------------------------------------|-
D-----------------------------------------------------2-2-2-2-3-5-|-
A---------------------------------5-5-5-3-5-5-5-5-3-3-------------|-
E-1-1-1-1-1-1-1-1/6-6-6-6-6-6-6-6---------------------------------|-

Second Chorus:
G|-----------------------------------------------------------------
D|-----------------0-0-0-0-------------------------0-0-0-0---2-3-5-
A|---------1-1-1-1---------3-3-3-3---------1-1-1-1---------3-------
E|-1-1-1-1-------------------------1-1-1-1-------------------------

G|---------------------------------|---------------------------------|-
D|-----------------0-0-0-0---------|---------------------------------|-
A|---------1-1-1-1---------3-3-3-3-|-1-1-1-1-1-1-1-1-3-3-1-1-0-0-----|-
E|-1-1-1-1-------------------------|-----------------------------3-3-|-
[ Tab from: http://www.guitartabs.cc/tabs/d/dexter_freebish/leaving_town_btab_ver_2.html ]
Bridge:
G|-----------------------------------------------------------------
D|-----------------------------------------------------------------
A|-5-5-5-5-5-5-5-5-3-3-3-3-3-3-3-3-1-1-1-1-1-1-1-1-3-3-3-3-3-3-3-3-
E|-----------------------------------------------------------------

G-----------------------------------------------------------------|-
D-----------------------------------------------------------------|-
A-5-5-5-5-5-5-5-5-7-7-7-7-7-7-7-7-1-1-1-1-1-1-1-1-3-3-3-3-3-3-3-3-|-
E-----------------------------------------------------------------|-

Third Verse:
G|-----------------------------------------------------------------
D|-----------------------------------------------------------------
A|---------------------------------5-5-5-5-5-5-5-5-3-3-3-3-3-3-3-3-
E|-1-1-1-1-1-1-1-1/6-6-6-6-6-6-6-6---------------------------------

G-----------------------------------------------------------------|-
D-----------------------------------------------------------------|-
A---------------------------------5-5-5-5-5-5-5-5-3-3-3-3-3-3-3-3/|-*
E-1-1-1-1-1-1-1-1/6-6-6-6-6-6-6-6---------------------------------|-
*There is a rest here as the drum does a fill.  You can hear where the
slide comes in.

Third Chorus:
G|-----------------------------------------------------------------
D|-----------------0-0-0-0-------------------------0-0-0-0---------
A|---------1-1-1-1---------3-3-3-3---------1-1-1-1---------3-3-5-3-
E|-1-1-1-1-------------------------1-1-1-1-------------------------

G|---------------------------------|---------------------------------|-
D|-----------------0-0-0-0---------|---------------------2-2-3-3-5-5-|-
A|---------1-1-1-1---------3-3-3-3-|-1-1-1-1-1-1-1-1-3-3-------------|-
E|-1-1-1-1-------------------------|---------------------------------|-

G|---------------------------------------------------------55555555-
D|-----------------0-0-0-0-------------------------0-0-0-0----------
A|---------1-1-1-1---------3-3-3-3---------1-1-1-1------------------
E|-1-1-1-1-------------------------1-1-1-1--------------------------

G|---------------------------------|---------------------------------
D|---------0-0-0-0-0-0-0-0---------|---------------------2-2-3-3-2-2-
A|-------------------------3-3-3-3-|-1-1-1-1-1-1-1-1-3-3-------------
E|-1-1-1-1-------------------------|---------------------------------

G---------------------------------|---------10\9---------|-
D---------------------------------|-----7----------------|-
A-1-1-1-1-1-1-1-1-3-3-3-3-3-3-1-0-|-5--------------------|-
E---------------------------------|----------------------|-
Comments