Devotchkas - Oi Toy Chords & Tabs

 

Oi Toy Chords & Tabs

Devotchkas Chords & Tabs

Version: 2 Type: Tab 0 ratings
1 star 2 stars 3 stars 4 stars 5 stars
comments

Oi Toy Tab

Tuning: Standard

*:Let Ring (4 counts I believe)

Intro:
E-------------|
B-------------|
G-------------|
D--7-*----7-*-|
A--7------7---|
E--5------5---|

Verse: (2x)
E-------------------------------------------------------------------
B-------------------------------------------------------------------
G----------------------------5-5-5-5-5-5----------------------------
D--7-7-7-7-7-7--3-3-3-3-3-3--5-5-5-5-5-5--5-5-5-5-5-5--7-7-7-7-7-7--
A--7-7-7-7-7-7--3-3-3-3-3-3--3-3-3-3-3-3--5-5-5-5-5-5--7-7-7-7-7-7--
E--5-5-5-5-5-5--1-1-1-1-1-1---------------3-3-3-3-3-3--5-5-5-5-5-5--
[ Tab from: http://www.guitartabs.cc/tabs/d/devotchkas/oi_toy_tab_ver_2.html ]
E-----------------------------------------------------------|
B-----------------------------------------------------------|
G--10-10-10-10-10-10---------------------12-12-12-12-12-12--|
D--10-10-10-10-10-10--10-10-10-10-10-10--12-12-12-12-12-12--|
A--8-8-8-8-8-8-8-8-8--10-10-10-10-10-10--10-10-10-10-10-10--|
E---------------------8--8--8--8--8--8----------------------|

Chorus:
E--------------------|
B--------------------|
G--------------------|
D--7-7-7-7--3-3-3-3--|
A--7-7-7-7--3-3-3-3--|
E--5-5-5-5--1-1-1-1--|

Back to Verse (3x)

Chorus (2x)

That's it! Pretty simple song. There is a little different strumming when you
play the first after the chorus. Just listen and you'll see what I mean. Good luck! 

taBBeD bY- JoDy

BroKen_YoUth@hoTmail.cOm
Comments