Devotchkas - Oi Toy Chords & Tabs

 

Oi Toy Chords & Tabs

Devotchkas Chords & Tabs

Version: 1 Type: Tab 0 ratings
1 star 2 stars 3 stars 4 stars 5 stars
comments

Oi Toy Tab

Artist: Devotchkas	
Song: Oi Toy! 
Album: Annihilation

This is quite easy

Intro

e-------------------------------------------------------------|
B-------------------------------------------------------------|
G-------------------------------------------------------------|
D-----------------5--------------------10---------------12----|
A---7------3----3---3----5------7----8----8----10----10----10-|
E-5---5--1---1---------3---3--5---5----------8----8-----------|
[ Tab from: http://www.guitartabs.cc/tabs/d/devotchkas/oi_toy_tab.html ]
e----------|---------------------------------------------
B----------|---------------------------------------------
G----------|------------------------5-5-5-5-5------------
D--7----7--|--7-7-7-7-7--3-3-3-3-3--5-5-5-5-5--5-5-5-5-5-
A--7----7--|--7-7-7-7-7--3-3-3-3-3--3-3-3-3-3--5-5-5-5-5-
E--5----5--|--5-5-5-5-5--1-1-1-1-1-------------3-3-3-3-3-

e-------------------------------------------------------|
B-------------------------------------------------------|
G------------10-10-10-10-10-----------------12-12-12-12-|
D--7-7-7-7-7-10-10-10-10-10-10-10-10-10-10--12-12-12-12-|
A--7-7-7-7-7--8--8--8--8--8-10-10-10-10-10--10-10-10-10-|
E--5-5-5-5-5-----------------8--8--8--8--8--------------|

Chorus

e-----------|
B-----------|
G-----------|
D--7-7--3-3-|
A--7-7--3-3-|
E--5-5--1-1-|

  
Comments