Devo - Uncontrollable Urge Chords & Tabs

 

Uncontrollable Urge Chords & Tabs

Devo Chords & Tabs

Version: 2 Type: Tab 0 ratings
1 star 2 stars 3 stars 4 stars 5 stars
comments

Uncontrollable Urge Tab

devo 'uncontrollable urge'


    opening riff
E ----------------------------------------------------------------|
B ----------------------------------------------------------------|
G ----------------------------------------------------------------|
D -4--0-------4--0------------------------------------------------|
A -2--0--4----2--0--4---------------------------------------------|
E -------2----------2---------------------------------------------|
[ Tab from: http://www.guitartabs.cc/tabs/d/devo/uncontrollable_urge_tab_ver_2.html ]
    verse riff
E ----------------|----------------|----------------|----------------|
B ----------------|----------------|----------------|----------------|
G ----------------|----------------|----------------|----------------|
D -4------4-------|----------------|----------------|----------------|
A -2------2-------|----------------|----------------|----------------|
E ----------------|----------------|----------------|----------------|


here's all you really need to play the song!

any questions? catch me at herbie@beer.com
Comments