Devin Townsend - Life Chords & Tabs

 

Life Chords & Tabs

Devin Townsend Chords & Tabs

Version: 1 Type: Tab 0 ratings
1 star 2 stars 3 stars 4 stars 5 stars
comments

Life Tab

   
 DEVIN TOWNSEND-LIFE TAB(ocean machine)
by Ethorf
questions r comments ethorf@hotmail.com


Drop c tuning, down one hole step and the low E lowered one more step c-G-c-F-A-D

Intro/prechorus part
D-----------------------------|
A-----------------------------|
F-----------------------------|
C---8-10-12-10-8---10----10---|
G--8-----------------13----13-|
C-8--------------12----10-----|

Chorus part(guitar 1, low)
D-------------------|
A-------------------|
F-333---------------|
c-333-1111-555-1111-|
G-111-1111-555-1111-|
C-----1111-555-1111-|

D--------------------|
A--------------------|
F-333----------------|
c-333-1111-555-44-66-|
G-111-1111-555-44-66-|
C-----1111-555-44-66-|
[ Tab from: http://www.guitartabs.cc/tabs/d/devin_townsend/life_tab.html ]
Chorus part(guitar 2, high)
D--------------------------------------------------|
A--------------------------------------------------|
F---15--15--15--/17\15-15151514-----------15b17b15-|
C-15--15--15--15----------------15--15/17----------|
G---------------------------------17---------------|
C--------------------------------------------------|


Solo thing
D---------------------------------------------------------------------------------------|
A-------------------------------------------------------------18--20---------------18---|
F---15--15--15--/17\15-15151514-----------15b17b15-17p15-17/19------15b-17-20-19-20-----|
C-15--15--15--15----------------15--15/17-----------------------------------------------|
G---------------------------------17----------------------------------------------------|
C---------------------------------------------------------------------------------------|

and the bass follows the choruss guitar power chords and i fucking give up on the
last part of the solo so yeah just chill with this stuff
alll hail the allmighty Hevy DEvy
Comments