Devildriver - Swinging The Dead Chords & Tabs

 

Swinging The Dead Chords & Tabs

Devildriver Chords & Tabs

Version: 1 Type: Tab 0 ratings
1 star 2 stars 3 stars 4 stars 5 stars
comments

Swinging The Dead Tab

   
Tabbed By Joey Popovich
10/3/04
Any question e mail em at alipknotheretic666




Tunning B F# B E G# C#

Intro (X2)
|---------------------------------------------|
|---------------------------------------------|
|---------------------------------------------|
|-------------------------------------------5-|
|-------6p5p0-5h6p0-6p5p0-------6p5p0-5h6p0-6-|
|-0-0-0-------------------0-0-0---------------|
  . . .                    . . .

|-----------------------------------|
|-----------------------------------|
|-----------------------------------|
|-----------------------------------|
|-----6p5p0-5h6p0-6p5p0--1-0-0-6-5-3|
|-0-0--------------------1-0-0-6-5-3|
  . .                    . . . . . .

Riff 1
Play this, then 2, play this again and then 3
|---------------------------------------------|
|---------------------------------------------|
|---------------------------------------------|
|-------------------------------------------5-|
|-------6p5p0-5h6p0-6p5p0-------6p5p0-5h6p0-6-|
|-0-0-0-------------------0-0-0---------------|
  . . .                   . . .

2
|-------------------------------------|
|-------------------------------------|
|-------------------------------------|
|-------------------------------------|
|-------6p5p0-5h6p0-6p5p0--1-0-0-6-5-3|
|-0-0-0--------------------1-0-0-6-5-3|
  . . .                    . . . . . .

3
|---------------------------------------------|
|---------------------------------------------|
|---------------------------------------------|
|---------------------------------------------|
|-------6p5p0-5h6p0-6p5p0-6p5p0-3h5p0-5p3p0-1-|
|-0-0-0---------------------------------------|
  . . .
[ Tab from: http://www.guitartabs.cc/tabs/d/devildriver/swinging_the_dead_tab.html ]
Riff 2
|-------------------------------------------|
|-------------------------------------------|
|-------------------------------------------|
|-------------------------------------------|
|-------------------------------------------|
|-0-0-0-0-0-0-0-0-0-0-0-0-0-0-0-0-0-0-0-0-1-|
  . . . . . . . . . . . . . . . . . . . .

|-------------------------------------------|
|-------------------------------------------|
|-------------------------------------------|
|-------------------------------------------|
|-------------------------------------------|
|-0-0-0-0-0-0-0-0-0-0-0-0-0-0-0-0-0-0-0-0-3-|


Chorus
Repeat X4
|-----|------------------------------|
|-----|------------------------------|
|-----|------------------------------|
|-----|-------------------------5--5-|
|-12\-|1p0---1p0----------------6--6-|
|-12\-|1p0-0-1p0-0-1-1-0-1p0-0-------|
           .     . . . .     .

Repeat X4
|----------------------|
|----------------------|
|----------------------|
|----------------------|
|----------------------|
|-3hb-0--3hb-0--1--0-1-|

Play Riff 1
Play Riff 2 X4
Play Chorus

Bridge
|-----------------------------|
|-----------------------------|
|-----------------------------|
|-----------------------------|  (Repeat X4)
|-0-----------5p3p0-3h5p0-1---|
|-0-----0-0-0-----------------|
        . . .

Repeat X8
Gtr I
|-------------------------------------------------|
|-------------------------------------------------|
|-------------------------------------------------|
|-------------------------------------------------|
|-------5p3p0-3h5p0-5p3p0--------5p3p0-3h5p0-1----|
|-0-0-0--------------------0-0-0------------------|
  . . .                    . . .

Gtr II
|--------------------------------------------|
|--------------------------------------------|
|--------------------------------------------|
|-------3p2--2h3-3h2---------3p2--2h3---0----|
|----------3----3---3-----------3-----3------|
|-0-0-0----------------0-0-0-----------------|
  . . .                . . .


Outro Bridge
|-----------------------------|
|-----------------------------|
|-----------------------------|
|-----------------------------|
|-0------5p3p0-3h5p0-5p3p0-1--|
|-0---------------------------|

Play Riff 2 X4
Play Chorus

END
Comments