Devildriver - I Dreamed I Died Chords & Tabs

 

I Dreamed I Died Chords & Tabs

Devildriver Chords & Tabs

Version: 1 Type: Tab 0 ratings
1 star 2 stars 3 stars 4 stars 5 stars
comments

I Dreamed I Died Tab

   
Band - DevilDriver
Song - I Dreamed I Died

C#|-------------------|
G#|-------------------|
 E|-------------------|
 B|-------------------|
F#|-------------------|
 B|0-10-9-0-9-8-------|


C#|------------------|
G#|------------------|
 E|------------------|
 B|------------------|
F#|------------------|
 B|0-8-7-0-7-6-------|

C#|-----------------------------------------|
G#|-----------------------------------------|
 E|-----------------------------------------|
 B|2-2-2--2-2-2-3-3-3-3-2-2-2--2-2-2-5-5-5-5|
F#|2-2-2--2-2-2-3-3-3-3-2-2-2--2-2-2-5-5-5-5|
 B|2-2-2--2-2-2-3-3-3-3-2-2-2--2-2-2-5-5-5-5|

C#|---------------------------------|
G#|---------------------------------|
 E|---------------------------------|
 B|2--2-2-2-3-2--2-2-2-5------------|
F#|2--2-2-2-3-2--2-2-2-5------------|
 B|2--2-2-2-3-2--2-2-2-5------------|


C#|--------------------------------------------|
G#|--------------------------------------------|
 E|--------------------------------------------|
 B|2(2)(2)(2)(2)2-3--2(2)(2)(2)(2)2-5----------|
F#|2(2)(2)(2)(2)2-3--2(2)(2)(2)(2)2-5----------|
 B|2(2)(2)(2)(2)2-3--2(2)(2)(2)(2)2-5----------|

[ Tab from: http://www.guitartabs.cc/tabs/d/devildriver/i_dreamed_i_died_tab.html ]
C#|--------------------------------|
G#|--------------------------------|
 E|--------------------------------|
 B|(0)(0)(0)(0)10-9-(0)(0)(0)(0)9-8|
F#|(0)(0)(0)(0)10-9-(0)(0)(0)(0)9-8|
 B|(0)(0)(0)(0)10-9-(0)(0)(0)(0)9-8|

C#|---------------------------------|
G#|---------------------------------|
 E|---------------------------------|
 B|(0)(0)(0)(0)8-7-(0)(0)(0)(0)7-6--|
F#|(0)(0)(0)(0)8-7-(0)(0)(0)(0)7-6--|
 B|(0)(0)(0)(0)8-7-(0)(0)(0)(0)7-6--|

C#|-------------------------------------|
G#|-------------------------------------|
 E|-------------------------------------|
 B|2-3-2-3-2-2-5---2-3-2-3-2-2-5-5------|
F#|2-3-2-3-2-2-5---2-3-2-3-2-2-5-5------|
 B|2-3-2-3-2-2-5---2-3-2-3-2-2-5-5------|

C#|--------------------------------------------------------|
G#|--------------------------------------------------------|
 E|--------------------------------------------------------|
 B|2-2-2-2-2-2-2-2-2-2-2-2-2-2-----------------------------|
F#|2-2-2-2-2-2-2-2-2-2-2-2-2-2-----------------------------|
 B|2-2-2-2-2-2-2-2-2-2-2-2-2-2-----------------------------|


C#|-------------------------------------|
G#|-------------------------------------|
 E|-------------------------------------|
 B|(2)(2)(2)(2)3-5-(2)(2)(2)(2)5-3------|
F#|(2)(2)(2)(2)3-5-(2)(2)(2)(2)5-3------|
 B|(2)(2)(2)(2)3-5-(2)(2)(2)(2)5-3------|
Comments