Devildriver - Hold Back The Day Chords & Tabs

 

Devildriver Chords & Tabs

Version: 2 Type: Tab 0 ratings
1 star 2 stars 3 stars 4 stars 5 stars
comments

Hold Back The Day Tab

   
Devil Driver					LEAD GUITAR
Hold Back the Day

TUNING:   Try one of these tunings-   1|    E      Eb      D      C
          it should be a low one      2|    B      Bb      A      G
          either way it will still    3|    G      Gb      F      E
          sound the same              4|    D      Db      C      B
                                      5|    A      Ab      G      F
                                      6|    D      Db      C      B

INTRO - Acoustic

--------------------------------|---------------------------------|---------------------------------|
--------------------------------|---------------------------------|---------------------------------|
------0-3-----0-3-----7-------6-|-----0-3-----0-3-----7-------6-6-|------0-3-----0-3-----7-------6--|
----------0-------------8-------|---------0-------------8---------|----------0-------------8--------|
----0-------0-------8-------7---|---0-------0-------8-------7-----|----0-------0-------8-------7----|
--0---------------8-------7-----|-0---------------8-------7-------|--0---------------8-------7------|


INTRO 2

-------------------------------------|---------------------------------------|
-------------------------------------|---------------------------------------|
-------------------------------------|---------------------------------------|
-------------------------------------|---------------------------------------|
---3---3---\\\\\---3---8---8---7---7-|---3---3---\\\\\---3---8---8---7---15--|b
-0-3-0-3-0-\\\\\-0-3-0-8-0-8-0-7-0-7-|-0-3-0-3-0-\\\\\-0-3-0-8-0-8-0-7-0-----|
 ^                                     ^
	                       \\\\\                                 \\\\\
	                       \\\\\                                 \\\\\
See which one sounds better-
with both guitars sliding, or just one.


CHORUS A

--------------------------------------------------------------------|
--------------------------------------------------------------------|
--------------------------------------------------------------------|
--------------------------------------------------------------------|
--1212121212121212121212121212121213131313131313131313131313131313--|
--------------------------------------------------------------------|

--------------------------------------------------------------------|
--------------------------------------------------------------------|
--------------------------------------------------------------------|
--1212121212121212121212121212121211111111111111111111111111111111--|
--------------------------------------------------------------------|
--------------------------------------------------------------------|

--------------------------------------------------------------------|
--------------------------------------------------------------------|
--------------------------------------------------------------------|
--------------------------------------------------------------------|
--1212121212121212121212121212121213131313131313131313131313131313--|
--------------------------------------------------------------------|

--------------------------------------------------------------------|
--------------------------------------------------------------------|
--------------------------------------------------------------------|
--15151515151515151414141414141414--------------6b------------------|
--------------------------------------------------------------------|
------------------------------------7-8-7-5-7-0---------------------|


CHORUS B  2x

--------------------------------------------------------------------|
--------------------------------------------------------------------|
--------------------------------------------------------------------|
--------------------------------------------------------------------|
--1212121212121212121212121212121213131313131313131313131313131313--|
--------------------------------------------------------------------|

--------------------------------------------------------------------|
--------------------------------------------------------------------|
--------------------------------------------------------------------|
--1212121212121212121212121212121211111111111111111111111111111111--|
--------------------------------------------------------------------|
--------------------------------------------------------------------|


VERSE


            <-------------------------2x-------------------------------------|
  ---------------------------------------------------------------------------|
  ---------------------------------------------------------------------------|
  ---------------------------------------------------------------------------|
  ---------------------------------------------------------------------------|
  --1p0-00-00000000-1p0-00-000-000-1p0-00-00000000011/22/33/44/55/66\44\33---|
  --1p0-00-00000000-1p0-00-000-000-1p0-00-00000000011/22/33/44/55/66\44\33---|
pm      .. ........     .. ... ...     .. ........... .. .. .. .. .. .. ..

      <-------------------------2x-------------------------------------------|
  ----------------------------|----------------------------------------------|
  ----------------------------|----------------------------------------------|
  ----------------------------|----------------------------------------------|
  ---------32-----------53----|--------32------------------------------------|
  --1p0-00-10-30-1p0-00-31-30-|-1p0-00-10-30-11/22/33/44/55/66\44\33---------|
  --1p0-00----30-1p0-00----30-|-1p0-00----30-11/22/33/44/55/66\44\33---------|
pm      ..           ..             ..       .. .. .. .. .. .. .. ..


PRE-CHORUS

 <---2x--->                            <----2x------------------------------|
10-13-10-13-|----13----13----12--12b-|-10-13-10-13-|----13----13----12------|
------------|-11----11----10---------|-------------|-11----11----10---------|
------------|------------------------|-------------|------------------------|
------------|------------------------|-------------|------------------------|
------------|------------------------|-------------|-------------------15b--|
------------|------------------------|-------------|------------------------|


CHORUS A


CHORUS B  2x


VERSE


PRE-CHORUS


CHORUS A


CHORUS B  2x


BRIDGE

 <-----3x------>                     <------------------2x-------------------|
-----------------|-----------------|-----------------------------------------|
-----------------|-----------------|-----------------------------------------|
-----------------|-----------------|-----------------------------------------|
-----------------|-----------------|-----------------------------------------|
-1p0-00-00000000-|-1p0-00-0h3-3//5-|-0573-0-0--0573-0-0--0573-3-3--0572-2-2--|
-1p0-00-00000000-|-1p0-00-0h3-3//5-|-0573-0-0--0573-0-0--0573-3-3--0572-2-2--|
pm   .. ........       ..

[ Tab from: http://www.guitartabs.cc/tabs/d/devildriver/hold_back_the_day_tab_ver_2.html ]
     <------------------------2x-------------------------------|
---------------------------------------------------------------|
---------------------------------------------------------------|
---------------------------------------------------------------|
---------------------------------------------------------------|
--0573-00000000--0573-00000000--0573-33333333--0572-22222222---|
--0573-00000000--0573-00000000--0573-33333333--0572-22222222---|


PRE-CHORUS


CHORUS A


CHORUS B  2x


INTRO 2


OUTRO

--------------------------------------|------------------------------------|
--------------------------------------|------------------------------------|
--------------------------------------|------------------------------------|
--------------------------------------|------------------------------------|
----3---3---\\\\\---3---8---8---7---7-|---3---3---\\\\\---3---8---8---7----|
--0-3-0-3-0-\\\\\-0-3-0-8-0-8-0-7-0-7-|-0-3-0-3-0-\\\\\-0-3-0-8-0-8-0-7-0--|
	                       ^                                     ^
	                       \\\\\                                 \\\\\
	                       \\\\\                                 \\\\\
See which one sounds better-
with both guitars sliding, or just one.


Devil Driver					RHYTHM GUITAR
Hold Back the Day

Lead Guitar plays INTRO 3x.


INTRO 2

-------------------------------------|---------------------------------------|
-------------------------------------|---------------------------------------|
-------------------------------------|------------------------------------9--|b
-------------------------------------|---------------------------------------|
---3---3---3---3---8---8---\\\\\---7-|---3---3---3---3---8---8---\\\\\-7-----|
-0-3-0-3-0-3-0-3-0-8-0-8-0-\\\\\-0-7-|-0-3-0-3-0-3-0-3-0-8-0-8-0-\\\\\-7-0---|
	   ^                                     ^
	   \\\\\                                 \\\\\
	   \\\\\                                 \\\\\
See witch one sounds better-
with both guitars sliding, or just one.


CHORUS

--------------------------------------------------------------------|
--------------------------------------------------------------------|
--------------------------------------------------------------------|
--------------------------------------------------------------------|
--5555555555555555555555555555555533333333333333332222222222222222--|
--0000000000000000000000000000000033333333333333332222222222222222--|


  ----------------------------------------------------------------|
  ----------------------------------------------------------------|
  ----------------------------------------------------------------|
  ----------------------------------------------------------------|
  --555555555555555555555555555555553333333322222222--------------|
  --000000000000000000000000000000003333333322222222-7-8-7-5-7-0--|
pm                                                   . . . . . .


  <-------------------------2x-----------------------------------------------|
-------------------------------------------------------------------|---------|
-------------------------------------------------------------------|---------|
-------------------------------------------------------------------|---------|
-------------------------------------------------------------------|---------|
--5555555555555555555555555555555533333333333333332222222222222222-|-\\\\\---|
--0000000000000000000000000000000033333333333333332222222222222222-|-\\\\\---|


VERSE
       <-------------------------2x------------------------------------------|
  ---------------------------------------------------------------------------|
  ---------------------------------------------------------------------------|
  ---------------------------------------------------------------------------|
  ---------------------------------------------------------------------------|
  --1p0-00-00000000-1p0-00-000-000-1p0-00-00000000011/22/33/44/55/66\44\33---|
  --1p0-00-00000000-1p0-00-000-000-1p0-00-00000000011/22/33/44/55/66\44\33---|
pm      .. ........     .. ... ...     .. ........... .. .. .. .. .. .. ..


     <-------------------------2x--------------------------------------|
  ----------------------------|----------------------------------------|
  ----------------------------|----------------------------------------|
  ----------------------------|----------------------------------------|
  ---------32-----------53----|--------32------------------------------|
  --1p0-00-10-30-1p0-00-31-30-|-1p0-00-10-30-11/22/33/44/55/66\44\33---|
  --1p0-00----30-1p0-00----30-|-1p0-00----30-11/22/33/44/55/66\44\33---|
pm      ..           ..             ..       .. .. .. .. .. .. .. ..


PRE-CHORUS

  -------------------------------------------------------------------|
  -------------------------------------------------------------------|
  -------------------------------------------------------------------|
  -------------------------------------------------------------------|
  -------------------------------------------------------------------|
  --0-0-0-0-0-0-0-0-0-0-0-0-0-0-0-0-8-8-8-8-8-8-8-8-7-7-7-7-7-7-7-7--|
pm  . . . . . . . . . . . . . . . . . . . . . . . . . . . . . . . .


  --------------------------------------------------------------|
  --------------------------------------------------------------|
  ----------------------------------------------------------9b--|
  --------------------------------------------------------------|
  --------------------------------------------------------------|
  --0-0-0-0-0-0-0-0-0-0-0-0-0-0-0-0-8-8-8-8-8-8-8-8-7-7-7-7-----|
pm  . . . . . . . . . . . . . . . . . . . . . . . . . . . .


CHORUS


VERSE


PRE-CHORUS


CHORUS


BRIDGE
   <-----3x----->                     <-----------------2x-------------------|
  ---------------|-----------------|-----------------------------------------|
  ---------------|-----------------|-----------------------------------------|
  ---------------|-----------------|-----------------------------------------|
  ---------------|-----------------|-----------------------------------------|
  -1-0-----------|-1p0-00-00000000-|-0573-0-0--0573-0-0--0573-3-3--0572-2-2--|
  -1-0-----------|-1p0-00-00000000-|-0573-0-0--0573-0-0--0573-3-3--0572-2-2--|
pm                     .. ........

   <--------------------------2x----------------------------------|
----------------|---------------|---------------|-----------------|
----------------|---------------|---------------|-----------------|
----------------|---------------|---------------|-----------------|
----------------|---------------|---------------|-----------------|
--0573-00000000-|-0573-00000000-|-0573-33333333-|-0572-22222222---|
--0573-00000000-|-0573-00000000-|-0573-33333333-|-0572-22222222---|


PRE-CHORUS


CHORUS


INTRO 2


OUTRO

--------------------------------------|------------------------------------|
--------------------------------------|------------------------------------|
--------------------------------------|------------------------------------|
--------------------------------------|------------------------------------|
----3---3---3---3---8---8---\\\\\---7-|---3---3---3---3---8---8---\\\\\\\--|
--0-3-0-3-0-3-0-3-0-8-0-8-0-\\\\\-0-7-|-0-3-0-3-0-3-0-3-0-8-0-8-0-\\\\\\\--|
	   ^                                     ^
	   \\\\\                                 \\\\\
	   \\\\\                                 \\\\\
See witch one sounds better-
with both guitars sliding, or just one.
Comments