Devildriver - Hold Back The Day Chords & Tabs

 

Hold Back The Day Chords & Tabs

Devildriver Chords & Tabs

Version: 1 Type: Tab 0 ratings
1 star 2 stars 3 stars 4 stars 5 stars
comments

Hold Back The Day Tab

---------------------------------------------------------------------------
		  Hold Back the Day- Devil Driver
----------------------------------------------------------------------------

Tuning: Drop B

This song is Drop B, it wont sound right unless your tuned down to B
its all there for you

Intro
|--------------------------------------------------------------------------|
|--------------------------------------------------------------------------|
|-----0-3--------0-3--------7-----------6----------------------------------|
|----------0-------------------8-------------------------------------------|
|---0---------0----------8-----------7-------------------------------------|
|-0-------------------8------------7---------------------------------------|

|--------------------------------------------------------------------------|
|--------------------------------------------------------------------------|
|--------------------------------------------------------------------------|
|--------------------------------------------------------------------------|
|---3---3---3---3----8---8---7---7--------------------15b------------------|
|-0-3-0-3-0-3-0-3--0-8-0-8-0-7-0-7-0---------------------------------------|

Guitar 1 (chorous)
|---------------------------------------------------------------------------|
|---------------------------------------------------------------------------|
|---------------------------------------------------------------------------|
|---------------------------------------------------------------------------|
|-55555555555555555555555-33333333333333333333333-2222222222222222222222222-|
|-00000000000000000000000-33333333333333333333333-2222222222222222222222222-|

Guitar 2
|---------------------------------------------------------------------------|
|---------------------------------------------------------------------------|
|---------------------------------------------------------------------------|
|------------------------------------------------------12121212121212121212-|
|12121212121212121212121212-13131313131313131313131313----------------------|
|---------------------------------------------------------------------------|

|--------------------------------------------------------------------------|
|--------------------------------------------------------------------------|
|--------------------------------------------------------------------------|
|-1111111111111111111111---------------------------------------------------|
|--------------------------------------------------------------------------|
|--------------------------------------------------------------------------|

|--------------------------------------------------------------------------|
|--------------------------------------------------------------------------|
|--------------------------------------------------------------------------|
|--------------------------------------------------------------------------|
|12121212121212121212121212-13131313131313131313131313---------------------|
|--------------------------------------------------------------------------|
[ Tab from: http://www.guitartabs.cc/tabs/d/devildriver/hold_back_the_day_tab.html ]
|--------------------------------------------------------------------------|
|--------------------------------------------------------------------------|
|--------------------------------------------------------------------------|
|-15151515151514141414141414-----------------6b----------------------------|
|--------------------------------------------------------------------------|
|-------------------------------7-8-7-5-7-0--------------------------------|


Verse
|--------------------------------------------------------------------------|
|--------------------------------------------------------------------------|
|--------------------------------------------------------------------------|
|--------------------------------------------------------------------------|
|-1-0--00-000000000--1-0-00-000000000-1-0-00-000000000---------------------|
|-1-0--00-000000000--1-0-00-000000000-1-0-00-000000000---------------------|

|--------------------------------------------------------------------------|
|--------------------------------------------------------------------------|
|--------------------------------------------------------------------------|
|---------3-2---------------5-3--------(listen to see how many)------------|
|-1-0-00--1-0--3-0--1-0-00--3-1--3-0---(-times its played-----)------------|
|-1-0-00-------3-0--1-0-00-------3-0---------------------------------------|

THEN..
Guitar 1
|--------------------------------------------------------------------------|
|--------------------------------------------------------------------------|
|--------------------------------------------------------------------------|
|--------------------------------------------------------------------------|
|-0-0-0-0-0-0-0-0-0-0-0-0-0-0-0-0-8-8-8-8-8-8-8-8-8-8-8-8-8-8-8-8----------|
|-0-0-0-0-0-0-0-0-0-0-0-0-0-0-0-0-8-8-8-8-8-8-8-8-8-8-8-8-8-8-8-8----------|

|--------------------------------------------------------------------------|
|--------------------------------------------------------------------------|
|------------------------------------9b------------------------------------|
|--------------------------------------------------------------------------|
|-7-7-7-7-7-7-7-7-7-7-7-7-7-7-7-7------------------------------------------|
|-7-7-7-7-7-7-7-7-7-7-7-7-7-7-7-7------------------------------------------|

Guitar 2
|--10-13-10-13-10-13----13-----13-----12-12b-------------------------------|
|--------------------11----11-----10---------------------------------------|
|--------------------------------------------------------------------------|
|--------------------------------------------------------------------------|
|--------------------------------------------------------------------------|
|--------------------------------------------------------------------------|


Bridge Thingy
|--------------------------------------------------------------------------|
|--------------------------------------------------------------------------|
|--------------------------------------------------------------------------|
|--------------------------------------------------------------------------|
|-0-5-7-3-0-0--(X2)-0-5-7-3-3-3--------0-5-7-2-2-2-------------------------|
|-0-5-7-3-0-0-------0-5-7-3-3-3--------0-5-7-2-2-2-------------------------|


It Sounds alright to me, thats basically the whole song done, have fun
Comments