Devil Number 7 - Just Another Day In La Chords & Tabs

 

Just Another Day In La Chords & Tabs

Devil Number 7 Chords & Tabs

Version: 1 Type: Bass Tab 0 ratings
1 star 2 stars 3 stars 4 stars 5 stars
comments

Just Another Day In La Bass Tab

   
Generated by Fast Tab, do not erase
====================
>From            : Jimbo Jones (jimbo666jones@aol.com
Artist          : Devil #7 - Just Another Day In L.A.
Bass Performance: 
Comments:       : Theme from Pacific Blue
---
Strings: D ,G ,C ,F => Tune Down One Full Step
Symbols explanations:
  H: hammer on  P: pull off
  +: slap       .: pop
  \: slide up   /: slide down
  --x~~x~~x: triplets
====================

|   e  e  e  e  e  e  e  e  e  e  e  e  e  e  e  e  e  e  e  e                   
F ------------------------------------------------------------ ||
C --------------------------0--0--0--0--0--3--2--0------------*||
G --------------0--0--0--0--------------------------3--1--0---*||
D --1--1--1--1-----------------------------------------------3 ||
>                                                                                

|   q  q  q  e  e  e                                                             
F ------------------ ||
C ------------------*||
G --1-----3--3--3--3*||
D -----1------------ ||
>                                                                                
[ Tab from: http://www.guitartabs.cc/tabs/d/devil_number_7/just_another_day_in_la_btab.html ]
|   e  e  e  e  e  e  e  e  e  e  e  e  e  e  e  e  e  e  e  e  
F ------------------------------------------------------------
C --0--0--0--0--------------0--0--0--0--------------3--3--3--3
G --------------1--1--1--1--------------1--1--3--3------------
D ------------------------------------------------------------
>                                                                                

|  e  e  e  e  e  e   e  e  e                                                                      
F ---------------------------
C --1--1--1--1--3--0---------
G --------------------3--0---
D --------------------------1
>                                                                                

|   e  e  e  e  e  e  e  e  e  e  e  e  e  e  e  e
F ------------------------------------------------
C --------------------------2H-3--3--3--2H-3--3--3
G --3H-4--4--4--3H-4--4--4------------------------
D ------------------------------------------------
>                                                                                

|   e  e  e  e  e  e  e  e  s  s 
F ------------------------------
C ------------------------------
G --3H-4--4--4--3H-4--4--4\16/-4
D ------------------------------
>

|   q  e  e  e  q  e  e  e  q  e  e  e  q  e  e  e                               
F ------------------------------------------------
C ------------------------------------------------
G -----1--3--1-----1--3--1-----3--5--3-----3--5--3
D --3-----------3-----------5-----------5---------
>                                                                                

|   e  e  e  e  e  e
F ------------------
C ------------------
G --------1--3--1---
D --1--1-----------1
>                   

Comments