Deviates - One Day Chords & Tabs

 

One Day Chords & Tabs

Deviates Chords & Tabs

Version: 1 Type: Tab 0 ratings
1 star 2 stars 3 stars 4 stars 5 stars
comments

One Day Tab

#----------------------------------PLEASE NOTE--------------------------------#
#This file is the author's own work and represents their interpretation of the#
#song. You may only use this file for private study, scholarship, or research.#
#-----------------------------------------------------------------------------#
#-- File created with Instab - http://www.pconline.com/~smcarey/instab.html --#
#-----------------------------------------------------------------------------#

Author/Artist: Deviates
Title: One day
Album: My life
Transcribed by: salvatore span?
Email: salspan17@virgilio.it

Wowowowowowowowowowo
What a grat song

26 and Paul wants a great life, a good paying job, a nice house, a kid a pretty wife
He can't hold a job he never he never has a knows he never will He plays the lottery
and blames his problems on the world I've been seeing this shit for some time Take
good care of yourself first of the month and the rent is due again checking his savings
he's got a pocket lint to spend down on his luck with no tears to spare desperation
motivates a mind not clear one day he said things are gonna change one day when
I've got things squared away one day soon turns into next one day were the words he
said with his last breath 1992 Paul walks into a liquor store with an unload pistol
I don't need to say more his life ended in that tragic way no one cried for him not one
this day
Intro:

------------------------------------------------------------------------------|
------------------------------------------------------------------------------|
-------999999-----------------------------------------------------------------|
-2-2---999999----------x4-----------------------------------------------------|
-2-2---777777-----------------------------------------------------------------|
-0-0--------------------------------------------------------------------------|
 verse

------------------------------------------------------------------------------|
------------------------------------------------------------------------------|
----------------------------------4444----------------------------------------|
-2222-6666-7777-222222-6666-7777--4444-------x2-------------------------------|
-2222-6666-7777-222222-6666-7777--2222----------------------------------------|
-0000-4444-5555-000000-4444-5555----------------------------------------------|
 chorus
[ Tab from: http://www.guitartabs.cc/tabs/d/deviates/one_day_tab.html ]
------------------------------------------------------------------------------|
------------------------------------------------------------------------------|
-66666666-4-2222222-4-6666666-4-2222-4444--6666666-4-2222222-4-6666666-4------|
-66666666-4-2222222-4-6666666-4-2222-4444--6666666-4-2222222-4-6666666-4------|
-44444444-2-0000000-2-4444444-2-0000-2222--4444444-2-0000000-2-4444444-2------|
------------------------------------------------------------------------------|


------------------------------------------------------------------------------|
------------------------------------------------------------------------------|
-2222-44-2--------------------------------------------------------------------|
-2222-44-2--------------------------------------------------------------------|
-0000-22-0--------------------------------------------------------------------|
------------------------------------------------------------------------------|
 repeat all then

------------------------------------------------------------------------------|
------------------------------------------------------------------------------|
-------------------------------44444444---------------------------------------|
-2222-6666-777777777-2222-6666-44444444--x2-----------------------------------|
-2222-6666-777777777-2222-6666-22222222---------------------------------------|
-0000-4444-555555555-0000-4444------------------------------------------------|


------------------------------------------------------------------------------|
--5555555-----------------55555555-7-9999-8888--------------------------------|
--4444444-6-44444444------44444444-6-8888-7777--------------------------------|
--2222222-6-44444444-x3---22222222-4-6666-5555--------------------------------|
----------4-22222222----------------------------------------------------------|
------------------------------------------------------------------------------|
  repeat chorus then

------------------------------------------------------------------------------|
-------------------------7777-------------------------------------------------|
-------------------4444--6666-------------------------------------------------|
-222222222222222---4444--4444-------------------------------------------------|
-222222222222222---2222-------------------------------------------------------|
-000000000000000--------------------------------------------------------------|
                                            repeat chorus till the end
Comments