Deviates - Come With Me Chords & Tabs

 

Come With Me Chords & Tabs

Deviates Chords & Tabs

Version: 3 Type: Tab 0 ratings
1 star 2 stars 3 stars 4 stars 5 stars
comments

Come With Me Tab

e--------------------------------------------------------------------------
B--------------------------------------------------------------------------
G--------------------------------------------------------------------------
D--444-2-4-2-4-2-444-2-4-2-0-444-2-4-2-4-2-444-0-2-0-----------------------
A-2-------------2-----------2-------------2---------4-0--------------------
E-------------------------------------------------------------------------- 

e--------------------------------------------------------------------------
B--------------------------------------------------------------------------
G------------------------------------------------------0-------------------
D--444-2-4-2-4-2-444-2-4-2-0-444-2-4-2-4-2-444-0-2-0-4---------------------
A-2-------------2-----------2-------------2--------------------------------
E--------------------------------------------------------------------------
[ Tab from: http://www.guitartabs.cc/tabs/d/deviates/come_with_me_tab_ver_3.html ]
Comments