Deviates - Come With Me Chords & Tabs

 

Come With Me Chords & Tabs

Deviates Chords & Tabs

Version: 2 Type: Tab 0 ratings
1 star 2 stars 3 stars 4 stars 5 stars
comments

Come With Me Tab

DEVIATES
TIME IS THE DISTANCE
COME WITH ME
L GUITAR/R GUITAR/BASS
Transcribed by --==<[aRyAn]>==--(ninmegafan)
ss4_aaron@yahoo.com

*note-this song is actually a little more complicated than it sounds,
but don't give up it'll come to you quickly!
-These are all the parts you need to play the song for (rythym)guitar,
(lead)guitar, and bass

lead in

e|---------------------------------------------------------------------------------|
B|---------------------------------------------------------------------------------|
G|---------------------------------------------------------------------------------|
D|---4-4-0-4-0-4-0-----4-4-0-4-0-7-0---4-4-0-4-0-4-0---4-4-0-4-0-4-0---------------|
A|-------------------------------------------------------------------8-5-4---------|
E|-7----------------7----------------7---------------7-----------------------------|1
all played very fast (8th notes)

play twice, then play

e|---------------------------------------------------------------------------------|
B|---------------------------------------------------------------------------------|
G|---------------------------------------------------------------------------------|
D|---4-4-0-4-0-4-0---4-4-0-4-0-7-5---4-4-0-4-0-4-0---4-4-0-4-5-5-------------------|
A|---------------------------------------------------------------------------------|
E|-7---------------7---------------7---------------7-------------------------------|2

play once, then play

e|---------------------------------------------------------------------------------|
B|---------------------------------------------------------------------------------|
G|-----------------------------4---------------------------------------------------|
D|---4-4-0-4-0-4-0---4-4-0-4-0------4-4-0-4-0--7--5--------------------------------|
A|---------------------------------------------------------------------------------|
E|-7---------------7--------------7------------------------------------------------|3

Main Rythym

e|---------------------------------------------------------------------------------|
B|---------------------------------------------------------------------------------|
G|-4-4-4-4-4-4-4---------------7-7-7-7-7-7-7---------------------------------------|
D|-4-4-4-4-4-4-4-5-5-5-5-5-5-5-7-7-7-7-7-7-7-7-7-7-7-7-7-7-------------------------|
A|-2-2-2-2-2-2-2-5-5-5-5-5-5-5-5-5-5-5-5-5-5-7-7-7-7-7-7-7-------------------------|
E|---------------3-3-3-3-3-3-3---------------5-5-5-5-5-5-5-------------------------|4

Main Bass
[ Tab from: http://www.guitartabs.cc/tabs/d/deviates/come_with_me_tab_ver_2.html ]
e|---------------------------------------------------------------------------------|
B|---------------------------------------------------------------------------------|
G|---------------------------------------------------------------------------------|
D|---------------------------------44-55-7-----------------------------------------|
A|-2-2-2-2-2-2-2---------------5-5-------------------------------------------------|
E|---------------3-3-3-3-3-3-3-------------5-5-5-5-5-5-5---------------------------|5

Chorus Rythym

e|-----------------------------------|---------------------------------------------|
B|-----------------------------------|---------------------------------------------|
G|-4-4-4-7-7-7-----------------------|-4---4---4-6-4---4---4-6--4------------------|
D|-4-4-4-7-7-7-4-4-4-4-7-7-5-5-5-7-7-|-4-5-4-5-4-6-4-6-4-6-4-6--4------------------|
A|-2-2-2-5-5-5-4-4-4-4-7-7-5-5-5-7-7-|-2-5-2-5-2/3-2-6-2-6-2/3--2------------------|
E|-------------2-2-2-2-5-5-2-2-2-5-5-|---3---3-------3---3-------------------------|6

play twice                             play once

e|-----------------------------------|---------------------------------------------|
B|-----------------------------------|---------------------------------------------|
G|-----------------------------------|---------------------------------------------|
D|-----------------------------------|---------------------------------------------|
A|-2-2-2-5-5-5-----------------------|-2---2---2/3-2---2---2/3--2------------------|
E|-------------2-2-2-2-5-5-2-2-2-5-5-|---3---3-------3---3-------------------------|7

Post Chorus
(lead guitar)
e|---------------------------------------------------------------------------------|
B|---------------------------------------------------------------------------------|
G|---------------------------------------------------------------------------------|
D|---------------------------------------------------------------------------------|
A|-2--4-4--2--4-4--2--4-4--2--4-4--2--4-4--2--4-4--2--4-4--2--4-4--2--4-4--2--4-4--|
E|---------------------------------------------------------------------------------|8

Post Chorus
(bass)

e|---------------------------------------------------------------------------------|
B|---------------------------------------------------------------------------------|
G|---------------------------------------------------------------------------------|
D|---------------------------------------------------------------------------------|
A|-2-2-2-2-2-2-2---------------5-5-5-5-5-5-----------------------------------------|
E|---------------3-3-3-3-3-3-3-------------5-5-5-5-5-5-5---------------------------|9

Post Chorus
(rythym guitar)

e|---------------------------------------------------------------------------------|
B|---x-x-x---x-------------------x-x-x---x-----------------------------------------|
G|-4-4-4-4-4-4-4---x-x-x---x---7-7-7-7-7-7-7---x-x-x---x---------------------------|
D|-4-4-4-4-4-4-4-5-5-5-5-5-5-5-7-7-7-7-7-7-7-7-7-7-7-7-7-7-------------------------|
A|-2-2-2-2-2-2-2-5-5-5-5-5-5-5-5-5-5-5-5-5-5-7-7-7-7-7-7-7-------------------------|
E|---------------3-3-3-3-3-3-3---------------5-5-5-5-5-5-5-------------------------|10
  

-If you have any problems with this tab email me
--==<[aRyAn]>==--(ninmegafan)
ss4_aaron@yahoo.com
Comments