Deviates - Come With Me Chords & Tabs

 

Come With Me Chords & Tabs

Deviates Chords & Tabs

Version: 1 Type: Tab 0 ratings
1 star 2 stars 3 stars 4 stars 5 stars
comments

Come With Me Tab

Song:Come With Me
Artist:Deviates          
Album:Time is distance



               Intro                                       
e-------------------------------------------------------------------
B-------------------------------------------------------------------
G----------------------------------2-0------------------------------
D----4-4-2-4-2-4-2----4-4-4-2-4-2----------4-4-4-2-4-2-4-2----------
A-2-----------------2--------------------2--------------------------
E-------------------------------------------------------------------

e---------------------------
B---------------------------       
G---------------------------  >>^^^^^^^and also play 2x

[ Tab from: http://www.guitartabs.cc/tabs/d/deviates/come_with_me_tab.html ]
The 3rd verse is played a little different than the 1st and 2nd. this
is how it goes...
e-------------------------------------------------------------------
B-------------------------------------------------------------------
G-------------------------------------------------------------------
D-4---4-4-4-4-4---4-4--4-4-4-4-4-----4----------7-------------------
A-2---2-2-2-2-2---2-2--2-2-2-2-2-----2---5--4---5--7----------------
E----------------------------------------3--2------5----------------
      p.m........      p.m......            ^^^^^^^^^^^^^^^^^^^^
                  use the same palm muting patterns for these chords

more of the 3rd verse.
e-------------------------------------------------------------------
B-------------------------------------------------------------------
G-------------------------------------------------------------------
D--4444--2-4-4---4444-2-4-4------2-4-4-----2-4-4-----2-4-4------244-
A--2222----------2222--------5555------5555------4444------4444-----
E----------------------------3333------3333------2222------2222-----

Well thats about it.  Its a pretty easy song you just have to play it
fairly fast.  If you really want to get the rythm and when to play 
the parts down i would get the cd or burn the song...its not exactly 
accurate but its better than nothin!
Comments