Devendra Banhart - Tit Smoking In The Temple Of Artisan Mimicry Chords & Tabs

 

Tit Smoking In The Temple Of Artisan Mimicry Chords & Tabs

Devendra Banhart Chords & Tabs

Version: 1 Type: Tab 0 ratings
1 star 2 stars 3 stars 4 stars 5 stars
comments

Tit Smoking In The Temple Of Artisan Mimicry Tab

Song: Tit Smoking In The Temple Of Artisan Mimicry
Artist: Devendra Banhart
Album: Rejoicing In The Hands
Submitted by: Scotty T (justanothazero@hotmail.com)

No one else could tab this, so I decided to do it. It sounds hard but is really pretty
simple, and it's a good way to practice finger-picking if you're not too sweet at it


e-----------0-------------------0---------------|
b--3-----------3-------7-------------7----------|
G-----2-------------2-----5----------------5----|
D--0-----0-------0-----0-----0-----0----0-------|
A-----------------------------------------------|
E-----------------------------------------------|


e-------------0-------------------2--------4----|
b---10--------------10-----------3---3----3-----|
G-------9-----------------9-----4--------3----0-|
D---0------0-----0-----0-------0--------0-------|
A-----------------------------------------------|
E-----------------------------------------------|


e-----------0-------------------0---------------|
b--3-----------3----------7-----------7---------|
G-----2-------------5-----------------------5---|
D--0-----0-------0-----0-----0-----0-----0------|
A-----------------------------------------------|
E-----------------------------------------------|


e-------------0-------------------2--------4----|
b---10--------------10-----------3---3----3-----|
G-------9-----------------9-----4--------3----0-|
D---0------0-----0-----0-------0--------0-------|
A-----------------------------------------------|
E-----------------------------------------------|


e-----------0-----------------0-----------------|
b--3--------------3-----------------3-----------|
G-----2-----------------2-----------------2-----|
D--0-----0-----0-----0-----0-----0-----0-----0--|
A-----------------------------------------------|
E-----------------------------------------------|

[ Tab from: http://www.guitartabs.cc/tabs/d/devendra_banhart/tit_smoking_in_the_temple_of_artisan_mimicry_tab.html ]
e-----------------------------------------------|
b---/7\--/7\--/7\--/7\--/7\------6-----7--------|
G---/7\--/7\--/7\--/7\--/7\-----------------7---|
D----0----0----0----0----0----0-----0-----0-----|
A-----------------------------------------------|
E-----------------------------------------------|


e-------------------------------------------------|
b----6h7---6h7---6h7---6h7---7------6----7--------|
G------------------------------7---------------7--|
D--0-----0-----0-----0-----0-----0----0-----0-----|
A-------------------------------------------------|
E-------------------------------------------------|

Play this little diddy four times:
e------8----5----7----5-------|
b----10----3----7----3--------|
G---7-----2----4----2---------|
D--0-----0----0----0----------|
A-----------------------------|
E-----------------------------|


e-----10-----10------8--12--8--------10-------------|
b-----10-----10--12------------10---------10--------|
G-----10-----10---------------------------------10--|
D--0------0------0---0--0---0--0---0----0----0------|
A---------------------------------------------------|
E---------------------------------------------------|


e------8--12--8--------10-------------|
b--12------------10---------10--------|
G---------------------------------10--|
D--0---0--0---0--0---0----0----0------|
A-------------------------------------|
E-------------------------------------|


e------8--12--8--------10-------------|
b--12------------10---------10--------|
G---------------------------------10--|
D--0---0--0---0--0---0----0----0------|
A-------------------------------------|
E-------------------------------------|


e------8--12--8--------10----------------10-----------------------|
b--12------------10---------10------------------10----------------|
G---------------------------------10-------------------10-----10--|
D--0---0--0---0--0---0----0----0------0------0------0------0------|
A-----------------------------------------------------------------|
E-----------------------------------------------------------------|


Okay, from this point on, Devendra just plays a variation of the intro riff and slowly
picks up the tempo. Then he stops and hit's a D chord. Figure it out brah.
Comments