Devendra Banhart - Aye Mama Chords & Tabs

 

Aye Mama Chords & Tabs

Devendra Banhart Chords & Tabs

Version: 1 Type: Tab 0 ratings
1 star 2 stars 3 stars 4 stars 5 stars
comments

Aye Mama Tab

Artist: devendra banhart
Song: aye mama
Album: nino rojo (2004)


e ------7---6---7-------7---6---7-------5---4---5-------5---4---5------|
B ----5---5---5---5---5---5---5---5---3---3---3---3---3---3---3---3----|
G --7---------------7---------------5---------------5--------------5/7-|
D ---------------------------------------------------------------------|
A ---------------------------------------------------------------------|
E ---------------------------------------------------------------------|

e ----7---6---7-------7---6---7-------5---4---5-------5---4---5--------|
B --5---5---5---5---5---5---5---5---3---3---3---3---3---3---3---3------|
G ----------------7---------------5---------------5--------------------|
D ---------------------------------------------------------------------|
A ---------------------------------------------------------------------|
E ---------------------------------------------------------------------|
[ Tab from: http://www.guitartabs.cc/tabs/d/devendra_banhart/aye_mama_tab.html ]
e ------5-----5---------5-----5---------5-----5---------5-----5--------|
B ------3-----3---------3-----3---------3-----3---------3-----3--------|
G ----5---5---5---5---4---4---4---4---5---5---5---5---4---4---4---4----|
D --0-------0---0---0-------0---0---0-------0---0---0-------0---0------|
A ---------------------------------------------------------------------|
E ---------------------------------------------------------------------|

    (1:21) Horn enters
e ---------------------|
B --10---3---10---3----| and so on
G ---------------------|

    (1:50)
e ------5-----5---------5-----5------|
B ------6-----6---------6-----6------|
G ----7---7---7---7---7---7---7---7--|
D --7-------7---7---7-------7---7----| repeat till end
A -----------------------------------|
E -----------------------------------|


   (2:19, 2:48)       (2:52)
e -------------    e ----------------|
B -------------    B ----------------|
G --4-5-4-5----    G --4-5-4---------|
D -------------    D --------5-7-----| finish
A -------------    A ----------------|
E -------------    E ----------------|

Music by Devendra Banhart
Tabbed by ear, all my own work.
Good Luck
Campbell
Comments