Deus - Via Chords & Tabs

 

Via Chords & Tabs

Deus Chords & Tabs

Version: 1 Type: Bass Tab 0 ratings
1 star 2 stars 3 stars 4 stars 5 stars
comments

Via Bass Tab

Via - dEUS

original tab by Avi (...and damn proud of it!)
Uploaded by ItzikG (itzik@manics.co.il)


Intro - 
G|---------11-|---------11-|---------------|-/17-17-------|
D|------------|------------|---------------|--------17----|
A|-/10-10-----|-/10-10-----|-------------3-|-----------15-|
E|------------|------------|-10slideoff----|--------------|

G|---------11-|---------11-|---------------|-----|-----|---4h5p4-|
D|------------|------------|---------------|-5-5-|-----|---------|
A|-/10-10-----|-/10-10-----|-------------3-|-----|-3-3-|-3-------|
E|------------|------------|-10slideoff----|-----|-----|---------|

Verse - 
G|---------4-|---------------|
D|-------5---|---------4h5p4-|
A|-3-3-3-----|-3-5-5-5-------|
E|-----------|---------------|

and then it changes into...
G|---------|---------|---------|---------|
D|---------|-5-5-5-5-|---------|-4-4-4-4-|
A|-3-3-3-3-|---------|-5-5-5-5-|---------|
E|---------|---------|---------|---------|
[ Tab from: http://www.guitartabs.cc/tabs/d/deus/via_btab.html ]
Chorus (“I skipped...”) - 
G|-----|-----|---|-----|---|-----|-----------|-----------|
D|-----|-----|---|-----|---|-----|-----------|-----------|
A|-----|-4---|---|-4---|---|-2---|---5-4-----|---5-4-2-2-|
E|-3-5-|---5-|-3-|---5-|-3-|---3-|-3-----5-5-|-3---------|
                                   _________   _______
                                  /  twice  \ / twice \
G|-----|-----|---|-----|---|-----|-----------|---------|-----|
D|-----|-4---|---|-4---|---|-2---|-----------|---------|-----|
A|-3-5-|---5-|-3-|---5-|-3-|---3-|---5-4-----|---5-4---|-----|
E|-----|-----|---|-----|---|-----|-3-----5-5-|-3-----5-|--3--|

Bridge (2:44 - 3:08) - 
   ___________________________   _________________
  /        play twice         \ /     twice       \
G|---------11-|-11-11-11-11...-|-------------------|
D|------------|----------------|-----------4-4-5-5-|
A|-/10-10-----|----------------|-3-3-3-5-5---------|
E|------------|----------------|-------------------|

G|---------11-|---------11-|---------------|-----|-----|---4h5p4-|
D|------------|------------|---------------|-5-5-|-----|---------|
A|-/10-10-----|-/10-10-----|-------------3-|-----|-3-3-|-3-------|
E|------------|------------|-10slideoff----|-----|-----|---------|

Outro - 
   _______
  /repeat \
G|---------|-----|
D|---------|-----|
A|---5-4---|-----|
E|-3-----5-|--3--|

AMAZING !!!!!!!!!!!!! this is definitly my personal fav dEUS/Steff tab
Comments