Deus - Suds And Soda Chords & Tabs

 

Suds And Soda Chords & Tabs

Deus Chords & Tabs

Version: 1 Type: Bass Tab 0 ratings
1 star 2 stars 3 stars 4 stars 5 stars
comments

Suds And Soda Bass Tab

   
Suds & Soda - dEUS

original tab by avi
uploaded by itzikg (itzik@manics.co.il)

  _________________  ___________________________
 /    Intro        \/      All Verses           \
G|-9-7---7---------|----------------------------|
D|-----9---9-7/5---|----------------------------|
A|---------------7-|-7-7-7...-0-0-0...-2-2-2...-|
E|-----------------|----------------------------|
[ Tab from: http://www.guitartabs.cc/tabs/d/deus/suds_and_soda_btab.html ]
Pre chorus - 
(actually there’s no bass in this part but if there was it would be 
doing...)
G|-------------------------------|
D|-------------12-14-------------|
A|-12-14-12-14-------12-14-12-14-|
E|-------------------------------|

Chorus - 
G|-----------------------------|
D|-----------------------------|
A|-2-2-2-2-2-2-0-0-0-0-0-0-4-5-|
E|-----------------------------|

Bridge - 
G|-------7---|-7/9-7---7---------|
D|-7-8-9---9-|-------9---9-7/5---|
A|-----------|-----------------7-|
E|-----------|-------------------|

the keyboard solo is basically the bridge riffs, it’s not hard to 
tell when comes what, 
sorry ...I’m just too tired ;-)

Pretty cool riffs.... stef's a genious...
Comments