Deus - Morticiachair Chords & Tabs

 

Morticiachair Chords & Tabs

Deus Chords & Tabs

Version: 1 Type: Tab 0 ratings
1 star 2 stars 3 stars 4 stars 5 stars
comments

Morticiachair Tab

   
dEUS - Morticiachair 

Tabbed By Renzy

Verse - 
e|--------------|
B|--------------|
G|-9-9------7---|
D|-9-9--------9-|
A|-7-7----------|
E|-----7-7------|

Chorus -
   B5     D5   Eb5         
e|-----|-----|-----|              
B|-----|-----|-----|               
G|--4--|--7--|--8--|            
D|--4--|--7--|--8--|
A|--2--|--5--|--6--|
E|-----|-----|-----|

the part at the end of the chorus is - 
e|-(this a-few-|------|        
B|-----times)--|------|    
G|-9----7------|-9bv--|          
D|-9--9---9----|-9vv--|        
A|-7-----------|-7vv--|
E|-------------|------|
[ Tab from: http://www.guitartabs.cc/tabs/d/deus/morticiachair_tab.html ]
Second verse - 
e|-------|-------|----------------|-----|-15-14-10-|-10-13-15-|
B|-------|-------|----------------|-/12-|----------|----------|
G|-------|-------|-------7---7-9b-|-----|----------|----------|
D|-7h8h9-|-7h8h9-|-7h8h9---9------|-----|----------|----------|
A|-------|-------|----------------|-----|----------|----------|
E|-------|-------|----------------|-----|----------|----------|
             _________                        ______
            /  twice  \                      /3times\
e|-10b-|-9-|-----------|--------------------|-------|----------|
B|-----|---|-----------|--------------------|-------|----------|
G|-----|---|---------7-|---9-8---8-----8b---|-------|-----9b---|
D|-----|---|-9-8---8---|-9-----9---8-9----9-|-7h8h9-|-7-9----9-|
A|-----|---|-----9-----|--------------------|-------|----------|
E|-----|---|-----------|--------------------|-------|----------|

Outro -
play the chorus again and then...   
e|-------|-------|-----|
B|-------|-------|-----|
G|-------|-------|-----|
D|-------|-------|-----|
A|---8-7-|---5---|-----|
E|-7-----|-7---7-|-5h7-|
Comments