Deus - Morticiachair Chords & Tabs

 

Morticiachair Chords & Tabs

Deus Chords & Tabs

Version: 1 Type: Bass Tab 0 ratings
1 star 2 stars 3 stars 4 stars 5 stars
comments

Morticiachair Bass Tab

Song: morticiachair
ARTIST: dEUS
Album : Worst case scenario
AUTHOR: Marco F. mongo@zhol.ch

Intro actually without bass
Just once throw in E|-12-12-| (you'll know when!)

Riff 1
 
G|------------------------------------------------|
D|-----------20---------21--------20------18------|  
A|--(16)-18------18-19-----19-18-----18-16----16--|
E|------------------------------------------------|
    ()=play only the very first time. Mind the timing!

Riff 2

G|-----------------------------|
D|-----------------------------|
A|---9--9-----------9--9-------|
E|---7--7--/10-11---7--7--3-5--|

Riff 3
[ Tab from: http://www.guitartabs.cc/tabs/d/deus/morticiachair_btab.html ]
G|-------------------------|
D|----------------12-------|
A|----------13h14----14\---|
E|--12---12----------------|


Riff 4

G|--------11h12p11-----------------|
D|-----------------12\-------------|
A|---------------------/7\--10-----|
E|--12\---------------------10-11--|

Interlude

G|--------------------------------------------------|
D|--------------------------------------------------| (staccato!)
A|--3-3-3-3-3-3-3-3-2-2-2-2-2-2-2-2-3-3-3-3-3-3-3-3-| 
E|--------------------------------------------------|

Then play Riff 2 over and over again

Riff 5 (Ending)

G|-------------------------|
D|----15-14----12----------|  very tricky! 
A|-14-------14----14p12h14-|  I recommend this findering
E|-------------------------|  (i=index, r=ring-finger, p=pinky)

   r  p  r   r  i  r  i  r 

Comments