Detroit Cobras - Shout Bama Lama Chords & Tabs


Shout Bama Lama Chords & Tabs

Detroit Cobras Chords & Tabs

Version: 1 Type: Bass Tab 0 ratings
1 star 2 stars 3 stars 4 stars 5 stars

Shout Bama Lama Bass Tab

SHOUT BAMA LAMA (Otis Redding)

Artist: Detroit Cobras
Album: Life, Love and Leaving (2002)

This is basically it. Some minor variation is added in the song. The chords are indicated above each bar. The key is Eb major.

Tabbed by Stefan Termén 8/10/2002 (

Riff A
[ Tab from: ]
  Ab       Ab       Eb       Eb       Ab       Ab       Eb  Bb7  Eb
G --------|--------|--------|--------|--------|--------|--------|--------
D --------|--------|----5-8-|----5-8-|--------|--------|--------|--------
A ----3-6-|----3-6-|6-------|6-------|----3-6-|----3-6-|6-------|6-------
E 4-------|4-------|--------|--------|4-------|4-------|----6---|--------

Riff B

  Eb       Ab       Eb       Ab       Eb       Ab       Ab
G --------|--------|--------|--------|--------|--------|--------|------------
D ----5-8-|--------|----5-8-|--------|----5-8-|--------|--------|- Pause   --
A 6-------|----3-6-|6-------|----3-6-|6-------|----3-6-|6-------|- 1½ bars --
E --------|4-------|--------|4-------|--------|4-------|--------|------------

Riff order: A B A B A B A A