Detroit Cobras - Hey Sailor Chords & Tabs

 

Hey Sailor Chords & Tabs

Detroit Cobras Chords & Tabs

Version: 1 Type: Tab 0 ratings
1 star 2 stars 3 stars 4 stars 5 stars
comments

Hey Sailor Tab

   
Detroit Cobras - Hey sailor 

Hey guys, couldn't find a tab for this so I thought I'd do one. It can be done with
one guitar(as my covers band does it), but a second guitar playing softer chords in
the background sounds ace.

Guitar two just outlines chords


Intro  
e|--4----------------------------|--4-4-X-X-X-X-X-X-X-X----------|
B|--4----------------------------|--4-4-X-X-X-X-X-X-X-X----------|
G|--5----------------------------|--5-5-X-X-X-X-X-X-X-X----------|
D|--6----------------------------|--6-6-X-X-X-X-X-X-X-X----------|
A|--6----------------------------|--6-6-X-X-X-X-X-X-X-X----------|
E|--4----------------------------|--4-4-X-X-X-X-X-X-X-X----------|

 Roll the first A#


	A#					C#
e|-------------------------------|-------------------------------|
B|-------------------------------|-------------------------------|
G|-------------------------------|-----------4-4-6-6-------------|
D|-----------4-4-6-6-------------|-------6-6---------------------|
A|-------6-6---------------------|---4-4-------------------------|
E|---4-4-------------------------|-------------------------------|
[ Tab from: http://www.guitartabs.cc/tabs/d/detroit_cobras/hey_sailor_tab.html ]
Drums second guitar and bass enter here


CHORUS    A#				X7
e|-------------------------------|----------------------4--------|
B|-------------------------------|----------------------4--------|
G|-------------------------------|--4------6---4--6--4--5--------|
D|-----6-6-4-4-------------------|--4------6---4--6--4--6--------|
A|-------------6-6---------------|--2------4---2--4--2--6--------|
E|-4-4---------------------------|----------------------4--------|
listen closely for the timing


	X4
e|-------------------------------|-------------------------------|
B|-------------------------------|-------------------------------|
G|------------------3------------|-------------------------------|
D|---------3-4-3-4-----4-3-4-3-4-|-------------------------------|
A|------6-6----------------------|-------------------------------|
E|--4----------------------------|-------------------------------|

After chorus break  

Back to verse
Then to chorus 

Just listen to the rest of the song for the orders, there is no new material.

Enjoy


Alec

Any questions or amendments please email me
or if you want a free gmail account
alecjtaylor@gmail.com
Comments