Desultory - A Taste Of Tradegy Chords & Tabs

 

A Taste Of Tradegy Chords & Tabs

Desultory Chords & Tabs

Version: 1 Type: Tab 0 ratings
1 star 2 stars 3 stars 4 stars 5 stars
comments

A Taste Of Tradegy Tab

   
A taste of tragedyByDesultory
>From the album : Bitterness
Transcription by : Ugo Er Mejo
Transcriber's E-Mail Address : ugo_er_mejo@geocities.com


The intro is made with guitar's feedback.
Slightly touch frets while feedbacking.

E-|--------------------------------------------------
B-|--------------------------------------------------
G-|--------------------------------------------------
B-|---2---------------------5--3--2------------------
A-|---2---------2-2-2-3-3-3-5--3--2-------2-2-2------
E-|---0--0--0---------------3--2--0--0--0------------
 
E-|--------------------------------------------------
B-|--------------------------------------------------
G-|--------------------------------------------------
B-|---------5--7--2----------------------------------
A-|--3-3-3--5--7--2----------------------------------
E-|---------3--5--0----------------------------------
 
* This is the principal riff,played as intro and
* under the lyrics.

Lead
E-|------------------------------------------------------------
B-|-----------------3----------------3-3-5---------------------
G-|---4-2-4---4-2-4----4-2-4---4-2-4---------------------------
B-|------------------------------------------------------------
A-|------------------------------------------------------------
E-|------------------------------------------------------------
Rythm 
E-|------------------------------------------------------------
B-|------------------------------------------------------------
G-|------------------------------------------------------------
B-|-2-------2--------2-------2---------------------------------
A-|-2-------2--------2-------2---------------------------------
E-|-0-------0--------0-------0---------------------------------
 
* Rythm :  Let the E chords sound 

RIFF B
[ Tab from: http://www.guitartabs.cc/tabs/d/desultory/a_taste_of_tradegy_tab.html ]
E-|------------------------------------------------------------
B-|------------------------------------------------------------
G-|------------------------------------------------------------
B-|--2---3-2--5-/7-7--3----------------------------------------
A-|--2---3-2--5-/7-7--3----------------------------------------
E-|--0-0-1-0--3-/5-5--1----------------------------------------
      PM--|          PM
* This riff is the second riff under the vocals
* Sometimes he repeats the muted E string (-0-)
* three times(much faster,obviously)
* This is under the solo and the bridge too.
Lead    Always
       |------------------| Last time
E-|-----------------------|-------------------------------------
B-|-----------------------|-------------------------------------
G-|-----------------------|-------------------------------------
B-|-------2-3---2-3---2-3-|--2-3-3-2-2-3-5-3-3-2----------------
A-|--5--5-----1-----3-----|-5-----------------------------------
E-|-----------------------|-------------------------------------
        PM
Rythm
E-|------------------------------------------------------------
B-|------------------------------------------------------------
G-|--7--------3-----5------------------------------------------
B-|--5--------3-----5------------------------------------------
A-|--5--------1-----3------------------------------------------
E-|------------------------------------------------------------
 
* This is the hot riff!!
* The last time the rithm
* guitar does not play the D
* chord,and substitutes it with
* the beginning E of riff B

E-|------------------------------------------------------------
B-|------------------------------------------------------------
G-|------------------------------------------------------------
B-|------------------------------------------------------------
A-|----2-3---2-3---2-3--------------------------------------
E-|--5----1-----3-----5------------------------------------
     
* This is the  same as RIFF C,exept that
* this is on E string and the notes on E string are
* tremolo-picked

Well,this is it.Find out yourself the riff sequence and
the riffs attachments,and then it's done.The solo is really simple
and easy, but I did'nt catch the right tonality.
                                                     Ugo
Comments