Destinys Child - Bills Bills Bills Chords & Tabs

 

Bills Bills Bills Chords & Tabs

Destinys Child Chords & Tabs

Version: 1 Type: Tab 0 ratings
1 star 2 stars 3 stars 4 stars 5 stars
comments

Bills Bills Bills Tab

   
Bills Bills Bills by 

TablEdited by 
Tuning : E A D G B E 	Time Signature: 4/4

 |       |       |       |        |       |       |       |        |       |       |       |        |       |       |       |        
|--------------------------------|----------------2---------------|--------------------------------|----------------2---------------|
|--------------------------------|0-----------0-3-------------0---|2-------------------------------|0-----------0-3-------------0---|
|--------------------------------|--------------------------------|3-------------------------------|--------------------------------|
|--------------------------------|--------------------------------|4-------------------------------|--------------------------------|
|--------------------------------|--------------------------------|--------------------------------|--------------------------------|
|--------------------------------|--------------------------------|--------------------------------|--------------------------------|
[ Tab from: http://www.guitartabs.cc/tabs/d/destinys_child/bills_bills_bills_tab.html ]
 |       |       |       |        |       |       |       |        |       |       |       |        |       |       |       |        
|--------------------------------|--------------------------------|2-------------------------------|--------------------------------|
|2-----2-----2-------------------|--------------0-3---------------|2-------------------------------|--------------0-3---------------|
|3-----3-----3-------------------|------------0-------------------|3-------------------------------|------------0-------------------|
|4-----4-----4-------------------|2---------------------------2---|--------------------------------|2---------------------------2---|
|--------------------------------|--------------------------------|--------------------------------|--------------------------------|
|--------------------------------|--------------------------------|--------------------------------|--------------------------------|

 |       |       |       |        |       |       |       |        |       |       |       |        |       |       |       |        
|2-----------2-3-2---0-----------|----------------2---------------|--------------------------------|----------------2---------------|
|2-----------------------3---2---|0-----------0-3-------------0---|2-------------------------------|0-----------0-3-------------0---|
|3-------------------------------|--------------------------------|3-------------------------------|--------------------------------|
|--------------------------------|--------------------------------|4-------------------------------|--------------------------------|
|--------------------------------|--------------------------------|--------------------------------|--------------------------------|
|--------------------------------|--------------------------------|--------------------------------|--------------------------------|

 |       |       |       |        |       |       |       |        |       |       |       |        |       |       |       |        
|--------------------------------|--------------------------------|2-------------------------------|--------------------------------|
|2-----2-----2-------------------|--------------0-3---------------|2-------------------------------|--------------0-3---------------|
|3-----3-----3-------------------|------------0-------------------|3-------------------------------|------------0-------------------|
|4-----4-----4-------------------|2---------------------------2---|--------------------------------|2---------------------------2---|
|--------------------------------|--------------------------------|--------------------------------|--------------------------------|
|--------------------------------|--------------------------------|--------------------------------|--------------------------------|



Comments