Destination Unknown - Sitting Home In Thailand Chords & Tabs

 

Sitting Home In Thailand Chords & Tabs

Destination Unknown Chords & Tabs

Version: 1 Type: Bass Tab 0 ratings
1 star 2 stars 3 stars 4 stars 5 stars
comments

Sitting Home In Thailand Bass Tab

Band:  Destination Unknown
Song: "Sitting Home In Thailand"

New band from las vegas.  Its an awsome band.G------------------------------------- Repeat 3 Times

D-------7-7-7-7-----------------------

A--0-0-----------5-5-7-7-7-7----------

E-------------------------------------G--------------------------------------

D-------7-7-7-7--5-5-------------------

A--0-0----------------7-7-7-7----------

E--------------------------------------


G--------------------------------------- Repeat 3 Times

D-------9-9-9-9-------------------------

A----------------7-7--9-9-9-9-----------

E--7-7----------------------------------


G---------------------------------------
[ Tab from: http://www.guitartabs.cc/tabs/d/destination_unknown/sitting_home_in_thailand_btab.html ]
D-------9-9-9-9--7-7--------------------

A---------------------7-7---------------

E--7-7----------------------------------


Chorus

G-------------------------------------------------------

D-------------------------------------------------------

A--0-0-0-0-0-0--5-5-5-5-5-5--7-7-7-7-7-7--5-5-5--4-4-4--

E-------------------------------------------------------


Solo

G---------------------------------------------------

D-----------------------------7-9-7-5---------------

A--0-7-5-----5-7-9-7-----7-9-----------7-5-----0----

E---------7-----------9---------------------7-------


Tabbed by Sbirdhouse.  Any Questions comments email me at 
Sbirdhouse@hotmail.com
Comments