Descendents - My World Chords & Tabs

 

My World Chords & Tabs

Descendents Chords & Tabs

Version: 1 Type: Tab 0 ratings
1 star 2 stars 3 stars 4 stars 5 stars
comments

My World Tab

Band: The Descendents
Track: My World
Album: I Don't Want To Grow Up and Hallraker (Live)
Released: 1985

Key
X = Mute string
H = Hammer on
P = Pull off

Standard Tuning

Hey, Enjoy this tab its a classic Descendents song. This song is more or less correct, just listen
to the rhythm of the song and you'll be fine.

Intro

E----------------------------------------------------|
B----------------------------------------------------|
G----------------------------------------------------|
D-7-7777777777777777--3--8---7-7777777777--3--8------|
A-7-7777777777777777--3--8---7-7777777777--3--8------|
E-5-5555555555555555--1--10--5-5555555555--1--10-----|

E--------------------------------------------------------|
B--------------------------------------------------------|
G--------------------------------------------------------|
D-5-5555555555555555--3--8--3-3333333333333333--5--10--5-|
A-5-5555555555555555--3--8--3-1111111111333333--5--10--5-|
E-3-3333333333333333--1--6--1-1111111111111111--3--8---3-|

Intro part 2 (last time - just strum the power chord up and down until the verse starts)

E----------------------------------------------------|
B----------------------------------------------------|
G----------------------------------------------------|
D--7-------------------------------------------------|
A--7-------------------------------------------------|
E--5-------------------------------------------------|

Verse (you can work the rhythm out for yourself, just listen to the song its not hard at all)
[ Tab from: http://www.guitartabs.cc/tabs/d/descendents/my_world_tab.html ]
E----------------------------------------------------|
B----------------------------------------------------|
G-2--4--5--------5-----------------------------------|
D-2--4--5--3--5--5-----------------------------------|
A-0--2--3--3--5--3-----------------------------------|
E----------1--3--------------------------------------|

Chorus

E----------------------------------------------------|
B----------------------------------------------------|
G----4--5--------------------------------------------|
D-2--4--5--5-----------------------------------------|
A-2--2--3--5-----------------------------------------|
E-0--------3-----------------------------------------|

Chorus Part 2 (these are octive power chords, mute the D string with your finger)

E----------------------------------------------------|
B----------------------------------------------------|
G--7--9--10--12--------------------------------------|
D--X--X--X---X---------------------------------------|
A--5--7--8---10--------------------------------------|
E----------------------------------------------------|

Around 2:17 of the song you can hear a little guitar riff, I'm pretty sure its
just a hammer on and pull off from notes G to A on one of the higher strings, like this:

B---8H10P8---------------------------------------------|

End (let the power chord ring)

D-7~-------------------------------------------------|
A-7~-------------------------------------------------|
E-5~-------------------------------------------------|


Timings:
Intro X2
Intro Part 2
Verse X4
Chorus X6
Chorus Part 2
Intro Part 2
Verse X4
Chorus X6
Chorus Park 2
Intro X2
Intro Part 2
Verse X4
Chorus X6
Chorus Part 2
Intro X1
End

Any questions, suggestions, or general abuse email s64705@gmail.com
Comments