Descendents - My Age Chords & Tabs

 

My Age Chords & Tabs

Descendents Chords & Tabs

Version: 3 Type: Bass Tab 0 ratings
1 star 2 stars 3 stars 4 stars 5 stars
comments

My Age Bass Tab

Myage-The Descendents This is my first tab any problems email me Black_flag1950@hotmail.com

Intro
G-------------------------|
D----5-444----------------|
A-555-----5-333-------3-4-|
E---------------5-3-5-----|

Verse
G-------------------------|
D----5-444----------------|
A-555-----5-333-------3-4-|
E---------------5-3-5-----|
[ Tab from: http://www.guitartabs.cc/tabs/d/descendents/my_age_btab_ver_3.html ]
Chorus
G---------------------------------------------------------------|
D--------------------------3-5----------------------------3-5---|
A-5555-333333-5-5555-33333-----5-5555-333333-5-5555-33333-----5-|
E---------------------------------------------------------------|

After Chorus (She don't need no-one)
G----------------------------------------9-10-12-10--9-----|
D-----4444-2-3-5-3--2-----------12121212---------------10\-|
A-5555----------------3-10101010---------------------------|
E----------------------------------------------------------|

Intro  X 4
Verse  X 4
Chorus X 1
After Chorus X 2
Intro  X 4
Verse  X 4
Chorus X 1
Intro  X 4
Verse  X 4
Chorus X 1
After Chorus X 2
After Chorus (half step fatser) X 2
Comments