Descendents - Im Not A Loser Chords & Tabs

 

Im Not A Loser Chords & Tabs

Descendents Chords & Tabs

Version: 2 Type: Tab 0 ratings
1 star 2 stars 3 stars 4 stars 5 stars
comments

Im Not A Loser Tab

-------------------------------------------------------------------------------
			     I'm Not a Loser - Descendents
-------------------------------------------------------------------------------

Tabbed by: Jared Peterman
E-Mail: Ninja216@Comcast.Net
Tuning: Normal - EADGBe

  riff 1:
[ Tab from: http://www.guitartabs.cc/tabs/d/descendents/im_not_a_loser_tab_ver_2.html ]
e |-------------------------------------------------------|
B |-------------------------------------------------------|
G |---6-6-6-6-7-7-7-7-9-9-9-9-7-7-7-7--6--7--9--7--6--7---|
D |---6-6-6-6-7-7-7-7-9-9-9-9-7-7-7-7--6--7--9--7--6--7---|
A |---4-4-4-4-5-5-5-5-7-7-7-7-5-5-5-5--4--5--7--5--4--5---|
E |-------------------------------------------------------|

  riff 2:

e |------------------------------------------------------|
B |------------------------------------------------------|
G |--------------7--4-4-4-4-4-4-4-4-4-4--6-6-6-6-9---6---|
D |---4--4---7---7--4-4-4-4-4-4-4-4-4-4--6-6-6-6-9---6---|
A |---4--4---7---5--2-2-2-2-2-2-2-2-2-2--4-4-4-4-7---4---|
E |---2--2---5-------------------------------------------|

  Very fast song, but it gets easy after a while.

If you have any questions, comments or corrections, just e-mail me.
Comments