Descendents - Hope Chords & Tabs

 

Hope Chords & Tabs

Descendents Chords & Tabs

Version: 3 Type: Tab 0 ratings
1 star 2 stars 3 stars 4 stars 5 stars
comments

Hope Tab

descendents hope somery
intro/chorus x2
e|-------------------|
b|-----2----------5--|
g|-----2--6-7-----6--|
d|--44-4--6-7--77-7--|
a|--44-4--4-5--77-7--|
e|--22-2-------55-5--|

verse *x8 #x4 (occasionally strum)
e|------------------------------------|
b|-(7)*-(7)*-(7)*-(5)*-(3)*-(7)#-(5)#-|
g|-(8)---7---(8)--(6)--(4)---7---(6)--|  then play chorusx2,verse,and
d|--9----7----9----7----5----7----7---|  chorusx2, 
a|--9----5----9----7----5----5----7---|
e|--7---------7----5----3---------5---|

bridge *x8 #x4 >xpalm muted (call me selfish..)
e|-------------------------------------------------------|
b|-(7)*-(7)*-(7)*-(5)*-(3)*-(7)#-(5)#-----(3)#-(7)#-(5)#-|
g|-(8)---7---(8)--(6)--(4)---7---(6)--8*--(4)---7---(6)--|
d|--9----7----9----7----5----7----7---9>---5----7----7---|
a|--9----5----9----7----5----5----7---9----5----5----7---|
e|--7---------7----5----3---------5---7----3---------5---|


then play verse chorusx2

bridge2 x2 *x8  #x4
e|--------------------|
b|--------------------|
g|--6-6----------7#---|
d|--6-6-7-7--5*--7-7#-|
a|--4-4-7-7--5---5-7--|
e|------5-5--3-----5--|
[ Tab from: http://www.guitartabs.cc/tabs/d/descendents/hope_tab_ver_3.html ]
chorus2 x2 *x4 #x2
e|------------------|
b|------------------|
g|------6#--7#------|
d|--4*--6---7----7*-|
a|--4---4---5----7--|
e|--2------------5--|

intro
verse
why cant u say u talk to me 
ur alredy thinkin about someone else
when he comes home u'll b in his arms and i'll b gone but i kno
(chorus)my day will come i kno someday i'll b the only one
(verse)so now u wait for his spar u kno itll turn u on
hes gonna make u feel the way u wanna feel
but when he starts to lie and he makes u cry u kno ill b there
(chorus)my day will come u kno someday ill b the only one
(bridge)call me selfish call me wat u think is right
want someone 4 all ur own and not to shatter love 
cuz i'll have my way u wont have a say ne way
cuz i got u u wont stand a chance
(verse)so now u wait 4 his cock u kno itll turn u on
hes gonna make u feel the way u wanna feel 
but when he starts to lie and he makes u cry u kno ill b there
(chorus)my day will come u kno someday ill b the only one
(bridge2)so u want perfection i sense a self destruction
u dont kno wat u want its gonna take u years to find out
i'm not givin up and when u had enof ull take ur bruised little head
and come running bak to me u kno that
(chorus)im gonna b the only one (the only one)

have fun WOOO 
tabbed by tim robaczewski
Comments