Descendents - Everything Sucks Chords & Tabs

 

Everything Sucks Chords & Tabs

Descendents Chords & Tabs

Version: 1 Type: Tab 0 ratings
1 star 2 stars 3 stars 4 stars 5 stars
comments

Everything Sucks Tab

Descendents - Everything Sucks
Tabbed By: hoobastank_182__
EMail: no_parking182@hotmail.com


Intro: 
e|-------------------------------------------------------------| 
B|-------------------------------------------------------------| 
G|---5-5-5-5-5-5-5-5-5-5-5-5-5-5-5-5-5-5-5-5-5-5-5-5-5-5-5-5-5-| 
D|---5-5-5-5-5-5-5-5-5-5-5-5-5-5-5-5-5-5-5-5-5-5-5-5-5-5-5-5-5-| 
A|---7-7-7-7-7-7-7-7-7-7-7-7-7-7-7-7-7-7-7-7-7-7-7-7-7-7-7-7-7-| 
E|-------------------------------------------------------------| 

Verse: 
Got up this morning to make some coffe, everything sucks today 
e|------------------------------------------------------------| 
B|------------------------------------------------------------| 
G|---------------------------------5-5-5----------------------| 
D|----5-5-5-5-5-5-5-5-5-5-5-5-5-5--5-5-5--3-3-3--5-5-5--------| 
A|----5-5-5-5-5-5-5-5-5-5-5-5-5-5--7-7-7--3-3-3--5-5-5--------| 
E|----7-7-7-7-7-7-7-7-7-7-7-7-7-7---------5-5-5--7-7-7--------| 

Prayed someone hired a hitman to off me, everything sucks today 
e|------------------------------------------------------------| 
B|------------------------------------------------------------| 
G|---------------------------------5-5-5----------------------| 
D|----5-5-5-5-5-5-5-5-5-5-5-5-5-5--5-5-5--3-3-3--5-5-5--------| 
A|----5-5-5-5-5-5-5-5-5-5-5-5-5-5--7-7-7--3-3-3--5-5-5--------| 
E|----7-7-7-7-7-7-7-7-7-7-7-7-7-7---------5-5-5--7-7-7--------| 
[ Tab from: http://www.guitartabs.cc/tabs/d/descendents/everything_sucks_tab.html ]
Got up on the wrong side of life this morning, nothing today is gonna go my way 
e|---------------------------------------------------------------| 
B|---------------------------------------------------------------| 
G|------5-5-5-5-5-5-5-5--10--9--7--5--3-3-3-3-3-3-3-3--5-5-------| 
D|------5-5-5-5-5-5-5-5--10--9--7--5--3-3-3-3-3-3-3-3--5-5--5----| 
A|------7-7-7-7-7-7-7-7---8--7--5--3--1-1-1-1-1-1-1-1--3-3--5----| 
E|----------------------------------------------------------3----| 

Horiscope told my lies this morning, I dont think anything is gonna be okay 
e|-----------------------------------------------------------------| 
B|-----------------------------------------------------------------| 
G|------5-5-5-5-5-5-5-5--10--9--7--5--3-3-3-3-3-3-3-3--5-5-5-5-5---| 
D|------5-5-5-5-5-5-5-5--10--9--7--5--3-3-3-3-3-3-3-3--5-5-5-5-5---| 
A|------7-7-7-7-7-7-7-7---8--7--5--3--1-1-1-1-1-1-1-1--3-3-3-3-3---| 
E|-----------------------------------------------------------------| 

Today 
e|-----------| 
B|-----------| 
G|------9----| 
D|---9--9----| 
A|---9--7----| 
E|---7-------| 

Chorus: 
Everything sucks today 
e|-------------------------------------------| 
B|-------------------------------------------| 
G|----9-9-9-9-9-9-9-9-9-9--7-7---------------| 
D|----9-9-9-9-9-9-9-9-9-9--7-7--9------------| 
A|----7-7-7-7-7-7-7-7-7-7--5-5--9------------| 
E|------------------------------7------------| 

Everything sucks today 
e|-------------------------------------------| 
B|-------------------------------------------| 
G|----9-9-9-9-9-9-9-9-9-9--7-7---------------| 
D|----9-9-9-9-9-9-9-9-9-9--7-7--9------------| 
A|----7-7-7-7-7-7-7-7-7-7--5-5--9------------| 
E|------------------------------7------------| 

Everything sucks today 
e|-------------------------------------------| 
B|-------------------------------------------| 
G|----9-9-9-9-9-9-9-9-9-9--7-7-----12--------| 
D|----9-9-9-9-9-9-9-9-9-9--7-7--9--12--------| 
A|----7-7-7-7-7-7-7-7-7-7--5-5--9--10--------| 
E|------------------------------7------------|
Comments