Descendents - Descendents Chords & Tabs

 

Descendents Chords & Tabs

Descendents Chords & Tabs

Version: 1 Type: Tab 0 ratings
1 star 2 stars 3 stars 4 stars 5 stars
comments

Descendents Tab

Band: Descendents
Album/year: I Don't Want to Grow Up(1985)
Song/track: Descendents(1)

e-|--------------------------------------------------------|
B-|--------------------------------------------------------|
G-|---------------555-7--------------555-7-----------------|
D-|--777777777777-555-7-777777777777-555-7-777777777777----| 
A-|--777777777777-333-5-777777777777-333-5-777777777777----|
E-|--555555555555-------555555555555-------555555555555----| 
     ^=======Play this 2 times===========^ ^play after^
					    2 times
e-|-----------------------------------------|
B-|-----------------------------------------|
G-|---7777777-10101010101010-9---77-5-------|
D-|---7777777-10101010101010-9-7-77-5-5-22--| Play this 2 times.
A-|---5555555-8-8-8-8-8-8-8--7-7-55-3-5-22--|
E-|----------------------------5------3-00--|
[ Tab from: http://www.guitartabs.cc/tabs/d/descendents/descendents_tab.html ]
e-|-----------------------------------------------------|
B-|-----------------------------------------------------|
G-|------------------------77--------5555555544444444---|
D-|---22222222-33333333-55-77-77777--5555555544444444---|
A-|---22222222-33333333-55-55-77777--3333333322222222---|
E-|---00000000-11111111-33----55555---------------------| 
                        ^==3times=^
e-|----------------------------------------|
B-|----------------------------------------|
G-|-----77----------77----------77--555-4--|
D-|--55-77-77777-55-77-77777-55-77--555-4--|
A-|--55-55-77777-55-55-77777-55-55--333-2--|
E-|--33----55555-33----55555-33------------| 

e-|--------------------------------------------------------|
B-|--------------------------------------------------------|
G-|---------------555-7--------------555-7-----------------|  
D-|--777777777777-555-7-777777777777-555-7-777777777777----|5 times.
A-|--777777777777-333-5-777777777777-333-5-777777777777----|
E-|--555555555555-------555555555555-------555555555555----| 

e-|-----------------------------------------|
B-|-----------------------------------------|
G-|---7777777-10101010101010-9---77-5-------|
D-|---7777777-10101010101010-9-7-77-5-5-22--| Play this 2 times.
A-|---5555555-8-8-8-8-8-8-8--7-7-55-3-5-22--|
E-|----------------------------5------3-00--|

e-|-----------------------------------------------------|
B-|-----------------------------------------------------|
G-|------------------------77--------5555555544444444---|
D-|---22222222-33333333-55-77-77777--5555555544444444---|
A-|---22222222-33333333-55-55-77777--3333333322222222---|
E-|---00000000-11111111-33----55555---------------------| 
                        ^==3times=^
e-|-----------------------------------------|
B-|-----------------------------------------|
G-|-----77----------77----------77--555-4---|
D-|--55-77-77777-55-77-77777-55-77--555-4-7-|
A-|--55-55-77777-55-55-77777-55-55--333-2-7-|
E-|--33----55555-33----55555-33-----------5-|
                                          ^let ring.

Pretty simple. Best band ever.
comments/questions email @ za7ch@hotmail.com
Comments