Descendents - Coolidge Chords & Tabs

 

Coolidge Chords & Tabs

Descendents Chords & Tabs

Version: 3 Type: Tab 0 ratings
1 star 2 stars 3 stars 4 stars 5 stars
comments

Coolidge Tab

xpy = x pull off to y
xhy = x hammer on y
xsy = x slide to y
(x) = touch harmonic thing at x

Song Structure:

Intro
Riff 1
Riff 2
Riff 3 (2x)
Intro
Riff 1
Riff 2
Riff 3 (2x)
Intro / Solo
End solo
Riff 1
Riff 2
Riff 3 (4x)
Intro



Intro: 

e|----------------------|
B|----------------------|
G|----------------------|
D|--------6-------------|
A|--------------5-5-6---|
E|---6-6---6------------|

Riff 1: (I'm not a cool guy...)

e|------------------------|
B|------------------------|
G|------------------------|
D|-7--5-----------7--5----|
A|-5--3--5--2--5--5--3--5-|
E|-------3--0--3--------3-|

Riff 2: (The feelings I could...)

e|-------------------------------------|
B|-------------------------------------|
G|-------------------------------------|
D|-7--5-----------55---------55--------|
A|-5--3--5--2--3--33--55--3--33--55----|
E|-------3--0--1------33--1------33----|

Riff 3: (I looked at my reflection...)

e|-------------------------------------|
B|-------------------------------------|
G|-------------------------------------|
D|-7--5--------------------------------|
A|-5--3--5--2--------------------------|
E|-------3--0--------------------------|

Solo:

e|-1s3-------------------------------------------|
B|-----4--3--4-3h4p3h4p3h4p3h4p3h4p3h4p3~~~~~~~~-|
G|-----------------------------------------------|
D|-----------------------------------------------|
A|-----------------------------------------------|
E|-----------------------------------------------|

e|-----------------------------------------------|
B|----------------------4--------------4---6---4-|
G|-5--5-----------3--5-----5---3----5------------|
D|-5--5-----3--5---------------------------------|
A|-3--3--6---------------------------------------|
E|-x--x------------------------------------------|
[ Tab from: http://www.guitartabs.cc/tabs/d/descendents/coolidge_tab_ver_3.html ]
e|-8h9h11p9p8--------------------------------------------|
B|-------------11p9-9h11p9--8-------8h9p8----------------|
G|------------------------------10---------10--9--10--9--|
D|-------------------------------------------------------|
A|-------------------------------------------------------|
E|-------------------------------------------------------|

e|-------------------------------------|
B|-------------------------------------|
G|-5--5--5-------------------(5)-------|
D|-5--5--5-----3--5----------(5)-------|
A|-3--3--3--6------------3-------------|
E|-x--x--x-----------------------------|
                             ^Hit whammy bar.

End solo:

e|------|
B|------|
G|------|
D|------|
A|--7---|
E|--5---|

Lyrics:

I'm not a cool guy anymore
As if I ever was before
I took a look at all the signs
and rolled it over in my mind
The feelings I could not release
Became a bitter part of me
What was I thinking of?
It couldn't stay the way it was
I looked at my reflection
and I saw a stranger's face
I saw where I was going
and I had to walk away

I lost the girl, its just as well
She tried to save me from myself
I still got her on my mind
Tossing and turning in my bed
For she had stayed another week
I would have dragged her down with me
She took it till she had enough
Is that what I thought love was?
I told her "See you later"
But it's hard to see at all
At the bottom of the barrel
With your back against the wall

I'm not a cool guy anymore
Left it behind and closed the door
I know I can't escape the past
Now I look back and have to laugh
I was my worst enemy
It almost got the best of me
What was I thinking of?
It couldn't stay the way it was
I looked up one day
and saw that it was up to me
You can only be a victim
If you admit defeat
I looked up one day
and saw that it was up to me
You can only be a victim
If you admit defeat
Comments